Offspring - Crossroads Chords & Tabs

 

Crossroads Chords & Tabs

Offspring Chords & Tabs

Version: 2 Type: Tab 0 ratings
1 star 2 stars 3 stars 4 stars 5 stars
comments

Crossroads Tab

Song: Crossroads
Artist: The Offspring
Album: The Offspring
As tabbed by Joe Muggah

Intro 
e-----------------------------------------------------------
B-----------------------------------------------------------
G------7-----7--7------10-----10---10------5-----3---3------
D--0-0---0-0--0----0-0----0-0----0-----0-0---0-0---0--------
A-----------------------------------------------------------
E-----------------------------------------------------------

(continued)
e-----------------------------------------------------------
B-----------------------------------------------------------
G------2-----2---2------7-----7--7------10-----10---10------
D--0-0---0-0--0-----0-0---0-0--0----0-0----0-0----0---------
A-----------------------------------------------------------
E-----------------------------------------------------------

(continued)
e-----------------------------------------------------------
B-----------------------------------------------------------
G------5-----3---3------7-----7---7-------------------------
D--0-0---0-0---0----0-0---0-0---0---------------------------
A-----------------------------------------------------------
E-----------------------------------------------------------

Riff 1
e-----------------------------------------------------------
B-----------------------------------------------------------
G-----------------------------------------------------------
D-----------------------------------------------------------
A--5-5-5-5--7-7-7-7--8-8-8-8--12-12-12-12--11-11-11-11------
E--0--------0--------0---------0------------0---------------

(continued)
e-----------------------------------------------------------
B-----------------------------------------------------------
G-----------------------------------------------------------
D-----------------------------------------------------------
A--11-11--7-7-7-7-7-7---------------------------------------
E---------0-------------------------------------------------

Riff 2
e-----------------------------------------------------------
B-----------------------------------------------------------
G--7-7-7-7-/--9-9-9--10-10-10-10-10-10---10--------7--------
D--x-x-x-x----x-x-x---x--x--x--x--x--x----x---10---x--------
A--5-5-5-5-/--7-7-7---8--8--8--8--8--8----8----x---5--------
E----------------------------------------------8------------

Verse
e-----------------------------------------------------------
B-----------------------------------------------------------
G--7--10-9-7-7--10-9-7--5--5m-5m-5m-5m----------------------
D--7--10-9-7-7--10-9-7--5--5m-5m-5m-5m--7-7-7-7--8--8m-8m---
A--5---8-7-5-5---8-7-5--3--3m-3m-3m-3m--7-7-7-7--8--8m-8m---
E---------------------------------------5-5-5-5--6--6m-6m---
[ Tab from: http://www.guitartabs.cc/tabs/o/offspring/crossroads_tab_ver_2.html ]
(continued)
e-----------------------------------------------------------
B-----------------------------------------------------------
G-----------------------------------------------------------
D--8m-8m--5-5-5-5--7-7-7-7-7-7-7-7-7-7-7-7------------------
A--8m-8m--5-5-5-5--7-7-7-7-7-7-7-7-7-7-7-7------------------
E--6m-6m--3-3-3-3--5-5-5-5-5-5-5-5-5-5-5-5------------------

Chorus
e-----------------------------------------------------------
B-----------------------------------------------------------
G--10-10-10------------7----10-10-10------------7-7-7-7-7-7-
D--10-10-10--10-10-10--7----10-10-10--10-10-10--7-7-7-7-7-7-
A---8--8--8--10-10-10--5-----8--8--8--10-10-10--5-5-5-5-5-5-
E-------------8--8--8------------------8--8--8--------------

Solo
e-----------------------------------------------------------
B--------10^----11--10--------------------------------------
G--12p10----------------12--12p10---------10p9h10p9h10p9----
D---------------------------------10------------------------
A------------------------------------12---------------------
E-----------------------------------------------------------

(continued)
e-----------------------------------------------------------
B--11--10--11p10h11p10--------------------------------------
G-----------------------10p9h10p9h10p9h10p9h10p9------------
D-----------------------------------------------------------
A-----------------------------------------------------------
E-----------------------------------------------------------

Bridge 1
e-----------------------------------------------------------
B-----------------------------------------------------------
G-10-10--12-10-9-7--10-10--10-9-7--10-10--12-10-9-7--10-----
D-10-10--12-10-9-7--10-10--10-9-7--10-10--12-10-9-7--10--10-
A--8--8--10--8-7-5---8--8---8-6-5---8--8--10--8-7-5---8--10-
E---------------------------------------------------------8-

Bridge 2
e-----------------------------------------------------------
B-----------------------------------------------------------
G--7--x-x-x-x-x-x--10-------------10-9---------7------------
D--7--x-x-x-x-x-x--10--10--10-10--10-9--10-10--7------------
A--5--x-x-x-x-x-x---8--10--10-10---8-7--10-10--5------------
E-----------------------8---8--8---------8--8---------------

Bridge 3
e-----------------------------------------------------------
B-----------------------------------------------------------
G-----------------------------------------------------------
D--10----10\-8----8/-10----10\-8----------------------------
A--10----10\-8----8/-10----10\-8----------------------------
E---8-----8\-6----6/--8-----8\-6----------------------------

Intro
Riff 1
Riff 2
Riff 1
Riff 2
Verse
Chorus
Verse, Solo
Chorus
Bridge 1
Bridge 2
Bridge 1
Bridge 2
Bridge 3
Riff 1
Riff 2
Riff 1
Riff 2
Verse
Chorus
Comments