Offspring - Cool To Hate Chords & Tabs

 

Cool To Hate Chords & Tabs

Offspring Chords & Tabs

Version: 1 Type: Bass Tab 0 ratings
1 star 2 stars 3 stars 4 stars 5 stars
comments

Cool To Hate Bass Tab

   
Band: Offspring
Song: Cool To Hate
Album: Ixnay on the Hombre
Tabed by: Greg(Psycoklown55@aol.com)

Verse:
I
E/----------------------------------------------------------------------------------------
A/-8-8--0-8-6-6---0-6-8-8---0-8-6-6---0-6-8-8---0-8-6-6---0-6-8-8---0-8-6-6
D/----------------------------------------------------------------------------------------
G/----------------------------------------------------------------------------------------
II
E/---------------------------------------------------6-6-6-6-6-6-6-8-8-8-8-8-8-8
A/-0-6-8-0-8-6-0-6-4-0-4-6-0-6-8-0-8-6-0-6----------------------------------
D/------------------------------------------------------------------------------------
G/------------------------------------------------------------------------------------

Chorus:
 
E/----4----6----4----6----4----6----4----6----4----6----4----6
A/-8----6----4----6----8----6----4----6----4----6----4----6--
D/-----------------------------------------------------------------
G/-----------------------------------------------------------------
[ Tab from: http://www.guitartabs.cc/tabs/o/offspring/cool_to_hate_btab.html ]
(Repeat Whole Verse)
 
(Repeat Chorus)


Turn around:

E/---------------------------        (Repeat 3x)
A/-8-8---8-8---6-6---6-6
D/--------------------------
G/--------------------------

E/-6-6-6-6-6-6-6-8-8-8-8-8-8-8
A/----------------------------------
D/----------------------------------
G/----------------------------------

E/-----------4-4-4-4-----------6-6-6-6-----------4-4-4-4       (repeat 4x)
A/-8-8-8-8-----------6-6-6-6-----------4-4-4-4---------
D/-----------------------------------------------------------
G/-----------------------------------------------------------

E/-----------4-4-4-4-----------6-6-6-6-----------4-4-4-4
A/-4-4-4-4-----------6-6-6-6-----------4-4-4-4---------
D/-----------------------------------------------------------
G/-----------------------------------------------------------

E/-----------------------------------
A/-8------0-8--------0-6-------0-8
D/-----------------------------------
G/----------------------------------

(repeat part II of verse and do the chorus)

last note:

E/--
A/--4
D/--
G/--
Comments