Offspring - Conspiracy Of One Chords & Tabs

 

Conspiracy Of One Chords & Tabs

Offspring Chords & Tabs

Version: 4 Type: Tab 0 ratings
1 star 2 stars 3 stars 4 stars 5 stars
comments

Conspiracy Of One Tab

Conspiracy of One by The Offspring. 
Album : The Offspring - Conspiracy of One (2000).
Any Questions Comments send me to briets@email.ru
[ Tab from: http://www.guitartabs.cc/tabs/o/offspring/conspiracy_of_one_tab_ver_4.html ]
# Intro #  play X2
E----------------------------|
B----------------------------|
G--7-7--5-7-7--5-7-7--5-3-5--|
D--7-7--5-7-7--5-7-7--5-3-5--|
A--5-5--3-5-5--3-5-5--3-1-3--|
E----------------------------|
>
# Verse #  play X2     P-M = palm-mute    
E------------------------------------------------------------------>
B--------------/P-M\---/---P-M---\--------------------------------->
G--7---9-10-7-------5---5-5-5-----3--3/5-5-5--5-7-7--5-7-7--5-3-5-->
D--7---9-10-7---5-5-5---5-5-5-5-5-3--3/5-5-5--5-7-7--5-7-7--5-3-5-->
A--5---7--8-5---5-5-3---3-3-3-5-5-1--1/3-3-3--3-5-5--3-5-5--3-1-3-->  
E---------------3-3-----------3-3---------------------------------->  
>                             
>--------------------------------------------------------------------------------------|
>--------------/P-M\---/---P-M---\-----------------------------------------------------|
>--7---9-10-7-------5---5-5-5-----3--3/5-5-5--5-7-7--5-7-7--5-7------------------------|
>--7---9-10-7---5-5-5---5-5-5-5-5-3--3/5-5-5--5-7-7--5-7-7--5-7------/--pick-slide----\|
>--5---7--8-5---5-5-3---3-3-3-5-5-1--1/3-3-3--3-5-5--3-5-5--3-5------<<<<<<<<<<<<<<<<<<|
>---------------3-3-----------3-3------------------------------------<<<<<<<<<<<<<<<<<<|
>
# Chorus #  
E---------------------------------------------------------|
B---------------------------------------------------------|
G--7-9-10-5----5--7-9-10-5----5--7-9-10-5----5-3--3/5-5---|
D--7-9-10-5--5-5--7-9-10-5--5-5--7-9-10-5--5-5-3--3/5-5---|
A--5-7--8-3--5-3--5-7--8-3--5-3--5-7--8-3--5-3-1--1/3-3---|
E------------3--------------3--------------3--------------|
>
Play # Intro # X2, # Verse #, # Chorus # X2,
>
# Bridge #  P-M = palm-mute
E----------------------------------------------------------------------------------------------->
B--------------------/----P-M----\-------------------------------------------------------------->
G--7-7-7-7-7-9-7-10--3-3-3-3----------7-7-7-7-7-9-7-10--3-3-3-3---------12-10--7-7-7-7-7-9-7-10->
D--7-7-7-7-7-9-7-10--3-3-3-3-3-5-3-5--7-7-7-7-7-9-7-10--3-3-3-3-3-5-3-5-12-10--7-7-7-7-7-9-7-10->
A--5-5-5-5-5-7-5--8--1-1-1-1-3-5-3-5--5-5-5-5-5-7-5--8--1-1-1-1-3-5-3-5-10--8--5-5-5-5-5-7-5--8->
E--\---P-M-----/-------------1-3-1-3----------------------------1-3-1-3------------------------->
>  \______________X2_______________/
>
>-----------------------------------------------------|
>-----------------------------------------------------|
>----------------------12-12-12-12-12-12-12-12-12-12--|
>--8-8-8-8-8-8-8-8-8-8-12-12-12-12-12-12-12-12-12-12--|
>--8-8-8-8-8-8-8-8-8-8-10-10-10-10-10-10-10-10-10-10--|
>--6-6-6-6-6-6-6-6-6-6--------------------------------|
>  \___________________P-M_________________________/
>
Play # Chorus # X2
>
# Outro #
E--------------------|
B--------------------|
G--7-7--5-7-7--5-7---|
D--7-7--5-7-7--5-7---|
A--5-5--3-5-5--3-5---|
E--------------------|

Tabbed by Briets(Andrei),
Tnx To Bruno Ferreira
Comments