Offspring - Conspiracy Of One Chords & Tabs

 

Conspiracy Of One Chords & Tabs

Offspring Chords & Tabs

Version: 3 Type: Tab 0 ratings
1 star 2 stars 3 stars 4 stars 5 stars
comments

Conspiracy Of One Tab

   
Offspring, Conspiracy Of One.
 Tabbed by Sebastian Lapidus,sebaslap@yahoo.com.
  
Intro:

e|---------------------|
B|---------------------|
G|-7-7-5-7-7-5-7-7-3-5-|  X 2
D|-7-7-5-7-7-5-7-7-3-5-|
A|-5-5-3-5-5-3-5-5-1-3-|
E|---------------------|

Verse:

e|----------------------------------------------------
E|----------------------------------------------------
B|----------------------------------------------------
G|-7-9-10-7--2-2--5--5-5-2-2-2------------------------
D|-7-9-10-7--2-2--5--5-5-2-2-2--3-3-3-5-7-7-5-7-7-5-7-
A|-5-7--8-5--0-0--3--3-3-0-0-0--1-1-1-3-5-5-3-5-5-3-5-
E|----------------------------------------------------
             ^ ^     ^ ^ ^ ^ ^
 
 -----|
 -----|
 -3-5-|
 -3-5-|
 -1-3-|
 -----|

Chorus:

e|-----------------|            |----|
B|-----------------|            |----|
G|-7-9-10-5--5---5-|            |-3:-|
D|-7-9-10-5--5-5-5-| X 2 then-> |-3:-|
A|-5-7--8-3--3-5-3-|            |-1:-|
E|-------------3---|            |----|

Go back to intro 

Go back to verse 

Go back to chorus

Bridge:
[ Tab from: http://www.guitartabs.cc/tabs/o/offspring/conspiracy_of_one_tab_ver_3.html ]
e|--------------------------------------|
B|--------------------------------------|
G|-7-7-7-7-7-9-7-10----3-3-3-3----------|
D|-7-7-7-7-7-9-7-10----3-3-3-3-3-5-3-5--| X 2
A|-5-5-5-5-5-7-5--8----1-1-1-1-3-5-3-5--|
E|-----------------------------1-3-1-3--|
   ^ ^ ^ ^ ^ ^ ^       ^ ^ ^ ^ ^ ^ ^
then:

e|----------------------------------------
B|----------------------------------------
G|-7-7-7-7-7-9-7-10---3-3-3-3-------12-10-
D|-7-7-7-7-7-9-7-10---3-3-3-3-3-5-3-12-10-
A|-5-5-5-5-5-7-5--8---1-1-1-1-3-5-3-10--8-
E|----------------------------1-3-1-------

 --------------------------------------------------|
 --------------------------------------------------|
 -7-7-7-7-7-9-7-10---------------12-12-12-12-12-12-|
 -7-7-7-7-7-9-7-10-8-8-8-8-8-8-8-12-12-12-12-12-12-|
 -5-5-5-5-5-7-5--8-8-8-8-8-8-8-8-10-10-10-10-10-10-|
 ------------------6-6-6-6-6-6-6-------------------|

Outro:

e|---------------------|
B|---------------------|
G|---7-7--5-7-7--5-7---|
D|---7-7--5-7-7--5-7---|
A|---5-5--3-5-5--3-5---|
E|---------------------|


Thats all, is very easy but very fast so is hard to get the timing but with time and practice you'll surelly get it. 
:: Ultimate Guitar Archive :: 
http://www.ultimate-guitar.com 



Comments