Offspring - Come Out Swinging Chords & Tabs

 

Come Out Swinging Chords & Tabs

Offspring Chords & Tabs

Version: 5 Type: Tab 0 ratings
1 star 2 stars 3 stars 4 stars 5 stars
comments

Come Out Swinging Tab

Come Out Swinging by The Offspring. Album : The Offspring - Conspiracy of One (2000)
Any Questions Comments send me to briets@email.ru
[ Tab from: http://www.guitartabs.cc/tabs/o/offspring/come_out_swinging_tab_ver_5.html ]
# Bass-intro # play X2
|---------------------------------|
|---------------------------------|
|---------------------------------|
|--3-3-1-3--1-3-3-6-6--6-1-1-6-5--|
>
# Intro1 #  play X2                      # Intro2 #  play very fast!  P-M = palm-mute
E--------------------------------------|>|-----------------------------------------------------------|
B------------------X2------------------|>|-----------------------------------------------------------|
G--9-9-7-9--7-9-9-12-12--12-7-7-12-11--|>|--9-999--9-999--9-999--9-999--9-999--9-999--9-999--9-999/--|
D--9-9-7-9--7-9-9-12-12--12-7-7-12-11--|>|--9-999--9-999--9-999--9-999--9-999--9-999--9-999--9-999/--|
A--7-7-5-7--5-7-7-10-10--10-5-5-10--9--|>|--7-777--7-777--7-777--7-777--7-777--7-777--7-777--7-777/--|
E--------------------------------------|>|----P-M----P-M----P-M----P-M----P-M----P-M----P-M----P-M---|
>
# Verse1 #  play X2
E-------------------------------| 
B-------------------------------|
G-------------------------------| This sound is audible when plays a bass drums and Dexter sing.
D-------------------------------|
A---7------5------7-------7-----|
E-------------------------------|
>
# Pre-chorus #  play X2                                      End  
E-----------------------------------------------------------|------------| 
B-----------------------------------------------------------|------------|
G--9-9-9--9-9-9-9-7-7-7--7-7-7-7-9-9-9--9-9-9-9-11-11-12-7--|--5-5--7-7--|
D--7-7-7--7-7-7-7-5-5-5--5-5-5-5-7-7-7--7-7-7-7--9--9-10-5--|--5-5--7-7--|
A-----------------------------------------------------------|--3-3--5-5--|
E-----------------------------------------------------------|------------|
>
# Chorus #
E-------------------------------------------------->
B-------------------------------------------------->
G--9-9-7-9-7-9-9---------------------5-5-5-7-7-7--->
D--9-9-7-9-7-9-9-5-5-5-5--5-7-5-7-5--5-5-5-7-7-7--->
A--7-7-5-7-5-7-7-5-5-5-5--5-7-5-7-5--3-3-3-5-5-5--->
E----------------3-3-3-3--3-5-3-5-3---------------->
>
>----------------------------------------------|
>----------------------------------------------|
>--9-9-7-9-7-9-9-------------------------9-7---|
>--9-9-7-9-7-9-9-5-5-5-5--5-7-5-7-5--7-5-9-7---|
>--7-7-5-7-5-7-7-5-5-5-5--5-7-5-7-5--7-5-7-5---|
>----------------3-3-3-3--3-5-3-5-3--5-3-------|
>
PLay # Intro1 # X2, # Verse1 # X2
>
# Verse2 #  
E-------------------------------------------------------------------------------------->
B-------------------------------------------------------------------------------------->
G-------------------------------------------------------------------------------------->
D--2-222--2-222--2-222--5-555--5-555--5-555--7-777--7-777--7-777--7-777--7-777--7-777-->
A--2-222--2-222--2-222--5-555--5-555--5-555--7-777--7-777--7-777--7-777--7-777--7-777-->
E--0-000--0-000--0-000--3-333--3-333--3-333--5-555--5-555--5-555--5-555--5-555--5-555-->
>    P-M    P-M    P-M    P-M    P-M    P-M    P-M    P-M    P-M    P-M    P-M    P-M
>-----------------------------------------------------------------|
>-----------------------------------------------------------------|
>---------------------------------------------------14-12-9-7-----|
>--2-222--2-222--2-222--5-555--5-555--5-555---7--7--14-12-9-7-----|
>--2-222--2-222--2-222--5-555--5-555--5-555---7--7--12-10-7-5-----|
>--0-000--0-000--0-000--3-333--3-333--3-333---5--5----------------|
>    P-M    P-M    P-M    P-M    P-M    P-M
Play # Chorus # X2
> 
# End-chorus #
E------------------|
B------------------|
G--5--5--4--7--9---|
D--5--5--4--7--9---|
A--3--3--2--5--7---|
E------------------|
>
# Bridge1 #
E-----------------------------------------------------------|
B-----------------------------------------------------------|
G--9-9-9--9-9-9-9-7-7-7--7-7-7-7-9-9-9--9-9-9-9-11-11-12-7--|
D--7-7-7--7-7-7-7-5-5-5--5-5-5-5-7-7-7--7-7-7-7--9-9--10-5--|
A-----------------------------------------------------------|
E-----------------------------------------------------------|
>
# Bridge2 #  play X4 (last time without P-M)  P-M = palm-mute ()= don't play last time!                     
E--------------------------------------------------------------------------->
B------------------------------X4-------------------------------------------> 
G--9-9-9-9-9-9-9-5-5-5-5-5-5-5---------------7-7-7-7-7-7-7------------------>
D--9-9-9-9-9-9-9-5-5-5-5-5-5-5-7-7-7-7-7-7-7-7-7-7-7-7-7-7-(9-9-9-9-9-9-9)-->
A--7-7-7-7-7-7-7-3-3-3-3-3-3-3-7-7-7-7-7-7-7-5-5-5-5-5-5-5-(9-9-9-9-9-9-9)-->
E------------------------------5-5-5-5-5-5-5---------------(7-7-7-7-7-7-7)-->
>  \_______________________________P-M___________________________________/
>
>--------------------------------------------|
>--------------------------------------------|
>--------------------------------------------|
>--9-999--9-999--9-999--9-999--9-999--9-999--|
>--9-999--9-999--9-999--9-999--9-999--9-999--|
>--7-777--7-777--7-777--7-777--7-777--7-777--|
>    P-M    P-M    P-M    P-M    P-M    P-M
>
Play # Chorus # X1
>
# Outro #
E------------------------------------------------------------------------------|
B------------------------------------------------------------------------------|
G--9-9-7-9-7-9-9---------------------5-5-5-7-7-7---5--5--7--------------9-7-9--|
D--9-9-7-9-7-9-9-5-5-5-5--5-7-5-7-5--5-5-5-7-7-7---5--5--7--7-5-7-5-7-5-9-7-9--|
A--7-7-5-7-5-7-7-5-5-5-5--5-7-5-7-5--3-3-3-5-5-5---3--3--5--7-5-7-5-7-5-7-5-7--|
E----------------3-3-3-3--3-5-3-5-3-------------------------5-3-5-3-5-3--------|

Tabbed by Briets(Andrei),
Tnx to Bruno Ferreira.
Comments