Offspring - Come Out Swinging Chords & Tabs

 

Come Out Swinging Chords & Tabs

Offspring Chords & Tabs

Version: 3 Type: Tab 0 ratings
1 star 2 stars 3 stars 4 stars 5 stars
comments

Come Out Swinging Tab

Song Title: Come Out Swinging
Album: Conspiracy Of One
Artist:The offspring
Tabbed By:Alvaro Patrón
Tabbed For: Guitar

Tab:

----------------------------------------------------------

Note:
* = triplets
: = let ring

bass intro:
G|-----------------------------------------------2x
D|-----------------------------------------------
A|-------------------3---5-------3-----3---------
E|-3-3-1-3---1-3-3-3---5---3---3---2-3--3--------

Intro
e|-----------------------------------------------
B|-----------------------------------------------2x
G|------------------7----------7-----------------
D|-5-3-5--5-5-3-5-7-7-7--5-7-5-7-7---------------
A|-5-3-5--5-5-3-5-7-5-7--5-7-5-5-7---------------
E|-3-1-3--3-3-1-3-5---5--3-5-3---5---------------

Triplet riff
     *   *      *   *   *
e|-----------------------------------------------
B|-----------------------------------------------
G|-----------------------------------------------
D|-5-3-5-3-5--5-3-5-3-5-5------------------------
A|-5-3-5-3-5--5-3-5-3-5-5------------------------
E|-3-3-3-3-3--3-3-3-3-3-3------------------------

 2x

solo
e|-----------------------------------------------2x
B|-----------------------------------------------
G|-----------------------------------------------
D|-----------------------------------------------
A|-999999-777777-999999--12-11-7-9---------------
E|-----------------------------------------------

Solo ending

e|-----------------------------------------------
B|-----------------------------------------------
G|-----------------------------------------------
D|-5-5-5-5:--------------------------------------
A|-5-5-5-5:--------------------------------------
E|-3-3-3-3:--------------------------------------

Riff 2
     *   * 
e|-----------------------------------------------
B|-----------------------------------------------    
G|------------7-7-7-7---5---7--------7-----------2x
D|-5-3-5-3-5--7-7-7-7-7-5-7-7--5-7-5-7-7---------
A|-5-3-5-3-5--5-5-5-5-7-3-7-5--5-7-5-5-7---------
E|-3-3-3-3-3----------5---5----3-5-3---5---------

intro 2x

 2x
[ Tab from: http://www.guitartabs.cc/tabs/o/offspring/come_out_swinging_tab_ver_3.html ]
Riff 3 
     *   *      *   *      *   *     *   *
e|-----------------------------------------------
B|-----------------------------------------------
G|-----------------------5-5-5-5-5-5-5-5-5-5-----2x
D|-5-5-5-5-5--7-7-7-7-7--5-5-5-5-5-5-5-5-5-5-----
A|-5-5-5-5-5--7-7-7-7-7--3-3-3-3-3-3-3-3-3-3-----
E|-3-3-3-3-3--5-5-5-5-5--------------------------

End with:
e|-----------------------------------------------
B|-----------------------------------------------
G|-5-5--------3----------------------------------
D|-5-5--7-5-7-5----------------------------------
A|-3-3--7-5-7-5----------------------------------
E|------5-3-5------------------------------------

intro 2x

sad tunes riff:1x
e|-----------------------------------------------
B|-----------------------------------------------
G|-7-777-7-777-5-555-5-555-7-777-7-777-5-555-7:--
D|-7-777-7-777-5-555-5-555-7-777-7-777-5-555-7:--
A|-5-555-5-555-3-333-3-333-5-555-5-555-3-333-5:--
E|-0-----0-----0-----0-----0-----0-----0-----0:--

solo 1x (backup guitar does chords with the solo as root)


pm riff 1
  4x per chord all palm muted
e|-----------------------------------------------
B|-----------------------------------------------
G|-----7-----7-9-5-7-----------------------------
D|-7-9-7-9-7-7-9-5-7-7---------------------------
A|-7-9-5-9-7-5-7-3-5-7---------------------------
E|-5-7---7-5---------5---------------------------


pm riff 2
   6x per chord without palm mute
e|-----------------------------------------------2x
B|-----------------------------------------------
G|-7-9-5-7---------------------------------------
D|-7-9-5-7---------------------------------------
A|-5-7-3-5---------------------------------------
E|-0-0-0-0---------------------------------------

triplet riff 1x
intro 3x

sad tune riff 2
e|-----------------------------------------------
B|-----------------------------------------------
G|-7-77-7-77-5-55-5-55-7-77-7-77-5-55-7:---------
D|-7-77-7-77-5-55-5-55-7-77-7-77-5-55-7:---------
A|-5-55-5-55-3-33-3-33-5-55-5-55-3-33-5:---------
E|-0----0----0----0----0----0----0----0:---------
----------------------------------------------------------

e-mail me for some else

:: Ultimate Guitar Archive :: 
http://www.ultimate-guitar.com
Comments