Offspring - Come Out Swinging Chords & Tabs

 

Come Out Swinging Chords & Tabs

Offspring Chords & Tabs

Version: 2 Type: Tab 0 ratings
1 star 2 stars 3 stars 4 stars 5 stars
comments

Come Out Swinging Tab

#----------------------------------PLEASE NOTE---------------------------------#
#This file is the author's own work and represents their interpretation of the #
#song. You may only use this file for private study, scholarship, or research. #
#------------------------------------------------------------------------------#
Offspring: Come out Swinging
intro / post chorus

|-----------------------------------|
|-----------------------------------|
|-9-7-9-7-9-11-12-12-12-------12-11-|
|-9-7-9-7-9-11-12-12-12-12-12-12-11-|
|-7-5-7-5-7--9-10-10-10-12-12-10--9-|
|-----------------------10-10-------|

pre verse
pm______| |_____|
|---------------------|
|---------------------|
|-9-9-9-9-9-9-9-9-9-9-|
|-9-9-9-9-9-9-9-9-9-9-|
|-7-7-7-7-7-7-7-7-7-7-|
|---------------------|

post verse

|-------------------------------------------------------------------------
|-------------------------------------------------------------------------
|-9-9-9-9-9-9-7-7-7-7-7-7-9-9-9-9-9-9-11-12-11-7--9-9-9-9-9-9-7-7-7-7-7-7-
|-x-x-x-x-x-x-x-x-x-x-x-x-x-x-x-x-x-x--x--x--x-x--x-x-x-x-x-x-x-x-x-x-x-x-
|-7-7-7-7-7-7-5-5-5-5-5-5-7-7-7-7-7-7--9-10--9-5--7-7-7-7-7-7-5-5-5-5-5-5-
|-------------------------------------------------------------------------

---------------------|
---------------------|
-9-9-9-9-9-9-5-5-7-7-|
-x-x-x-x-x-x-5-5-7-7-|
-7-7-7-7-7-7-3-3-5-5-|
---------------------|

chorus

|--------------------------------------------------------------------------
|--------------------------------------------------------------------------
|-9-7-9-----------------------5-5-5-5-7-7-7-7--9-7-9-----------------------
|-9-7-9-2-5-5-5-5-5-5-7-5-7-5-5-5-5-5-7-7-7-7--9-7-9-2-5-5-5-5-5-5-7-5-7-5-
|-7-5-7-2-5-5-5-5-5-5-7-5-7-5-3-3-3-3-5-5-5-5--7-5-7-2-5-5-5-5-5-5-7-5-7-5-
|-------0-3-3-3-3-3-3-5-3-5-3------------------------0-3-3-3-3-3-3-5-3-5-3-

-----------|
-----------|
-----------|
-7-5-2-5-2-|
-7-5-2-5-2-|
-5-3-0-3-0-|

verse second time
[ Tab from: http://www.guitartabs.cc/tabs/o/offspring/come_out_swinging_tab_ver_2.html ]
pm______| |_____| |_______| |_____| |_______| |_____| |_______| |_____|
|-------------------------------------------------------------------------------
|-------------------------------------------------------------------------------
|-------------------------------------------------------------------------------
|-2-2-2-2-2-2-2-2-2-2-5-5-5-5-5-5-5-5-5-5-7-7-7-7-7-7-7-7-7-7-7-7-7-7-7-7-7-7-7-
|-2-2-2-2-2-2-2-2-2-2-5-5-5-5-5-5-5-5-5-5-7-7-7-7-7-7-7-7-7-7-7-7-7-7-7-7-7-7-7-
|-0-0-0-0-0-0-0-0-0-0-3-3-3-3-3-3-3-3-3-3-5-5-5-5-5-5-5-5-5-5-5-5-5-5-5-5-5-5-5-
|_______| |_____| |_______| |_____| 
-----------------------------------------------------|
-----------------------------------------------------|
---------------------------------------------5-5-7-7-|
-2-2-2-2-2-2-2-2-2-2-5-5-5-5-5-5-5-5-5-5-7-7-5-5-7-7-|
-2-2-2-2-2-2-2-2-2-2-5-5-5-5-5-5-5-5-5-5-7-7-3-3-5-5-|
-0-0-0-0-0-0-0-0-0-0-3-3-3-3-3-3-3-3-3-3-5-5---------|


bridge

|--------------------------|
|--------------------------|
|-5----5----4----7----9----|
|-5----5----4----7----9----|
|-3----3----2----5----7----|
|--------------------------|

|------------------------------------------------|
|------------------------------------------------|
|-9-9-9-9-9-9-7-7-7-7-7-7-9-9-9-9-9-9-11-12-11-7-|
|-x-x-x-x-x-x-x-x-x-x-x-x-x-x-x-x-x-x--x--x--x-x-|
|-7-7-7-7-7-7-5-5-5-5-5-5-7-7-7-7-7-7--9-10--9-5-|
|------------------------------------------------|

played at first with pm then without
|---------------------------------------------------------------------------------|
|---------------------------------------------------------------------------------|
|-9-9-9-9-9-9-9-9-5-5-5-5-5-5-5-5-----------------7-7-7-7-7-7-7-7-----------------|
|-9-9-9-9-9-9-9-9-5-5-5-5-5-5-5-5-7-7-7-7-7-7-7-7-7-7-7-7-7-7-7-7-9-9-9-9-9-9-9-9-|
|-7-7-7-7-7-7-7-7-3-3-3-3-3-3-3-3-7-7-7-7-7-7-7-7-5-5-5-5-5-5-5-5-9-9-9-9-9-9-9-9-|
|---------------------------------5-5-5-5-5-5-5-5-----------------7-7-7-7-7-7-7-7-|

|---------------------------------|
|---------------------------------|
|---------------------------------|
|-9-9-9-9-9-9-9-9-9-9-9-9-9-9-9-9-|
|-9-9-9-9-9-9-9-9-9-9-9-9-9-9-9-9-|
|-7-7-7-7-7-7-7-7-7-7-7-7-7-7-7-7-|  
Comments