Offspring - Come Out And Play Chords & Tabs

 

Come Out And Play Chords & Tabs

Offspring Chords & Tabs

Version: 9 Type: Tab 0 ratings
1 star 2 stars 3 stars 4 stars 5 stars
comments

Come Out And Play Tab

   
Artist: Offspring
Song: Come out and play
Tuning: Standard (E,A,D,G,B,E)
ftolone@hotmail.com

I made this tab thinkin about using only 1 guitar, but if you wanna play it with 2 
guitars, share the riffs. Mail me any corrections, although i think it's 100% right

Intro
E ----------------------------------|
B ----------------------------------|
G --9-------------------------------|   During the
D --9-------------------------------|   begginig of the song
A --7-------------------------------|   play this note
E ----------------------------------|

Pre verse
E ----------------------------------|
B ----------------------------------|  
G --4----7-----------4----7---------|  
D --4----7---4-7-----4----7---4-7---|  
A --2----5---4-7-----2----5---4-7---|
E -----------2-5--------------2-5---|
[ Tab from: http://www.guitartabs.cc/tabs/o/offspring/come_out_and_play_tab_ver_9.html ]
2nd pre verse
E ----------------------------------|
B ----------------------------------|
G -11-11-11--14-14---9--------------|   
D -11-11-11--14-14---9--------------|   
A -9--9--9---12-12---7--------------|
E ----------------------------------|
 
Egyptian riff
E ----------------------------------|
B ----------------------------------|
G ----------------------------------|   
D ----------------------------------|   
A -----6-7-9-7-6--------------------|
E -7-8-----------8-7-8-7------------|
 
Verse
E ----------------------------------|
B ----------------------------------|  
G -4-4-------4-4--7-----------------|  ALL PALM MUTED
D -4-4--4-7--4-4--7--4-7------------|  
A -2-2--4-7--2-2--5--4-7------------|
E ------2-5----------2-5------------|

Pre chorus (After this, play the verse once again, but add a A9 D11 G11 at the end of it)
E ----------------------------------|
B ----------------------------------|  
G -9-9--12-12--11-11-11-----7-------|  
D -9-9--12-12--11-11-11--9--7-------|  
A -7-7--10-10--9--9--9---9--5-------|
E -----------------------7----------|

Chorus
E ----------------------------------|
B ----------------------------------|  
G --4----7-----------4----7---------|  x6
D --4----7---4-7-----4----7---4-7---|  
A --2----5---4-7-----2----5---4-7---|
E -----------2-5--------------2-5---|

Cont. chorus
E ----------------------------------|
B ----------------------------------|  
G -9-9-9-9---5-5-5-5----------------|  
D -9-9-9-9---5-5-5-5----------------|  
A -7-7-7-7---3-3-3-3----------------|
E ----------------------------------|

E ----------------------------------|
B ----------------------------------|  
G --4----7-----------4----7-------4-|  
D --4----7---4-7-4---4----7---4-7-4-|  
A --2----5---4-7-4---2----5---4-7-2-|
E -----------2-5-2------------2-5---|

ORDER

INTRO
PRE VERSE
2nd PRE VERSE
EGYPTIAN
VERSE
PRE CHORUS
VERSE
CHORUS
Cont.chorus
EGYPTIAN
VERSE
PRE CHORUS
VERSE
CHORUS
Cont.chorus
EGYPTIAN
PRE CHORUS
VERSE
CHORUS
Cont.chorus
Comments