Offspring - Come Out And Play Chords & Tabs

 

Come Out And Play Chords & Tabs

Offspring Chords & Tabs

Version: 4 Type: Tab 3 ratings
1 star 2 stars 3 stars 4 stars 5 stars
comments

Come Out And Play Tab

OffSpring - Come Out And Play
Tabbed By Shaun Maddocks
E-Mail - Maddo_666@Uprock.com

E---------------------------------------------------------
B---------------------------------------------------------
G---------------------------------------------------------
D-----1-2-4-2-1-------------------------------------------
A-2-3-----------3-2-3-2-3-2-------------------------------
E---------------------------------------------------------
[ Tab from: http://www.guitartabs.cc/tabs/o/offspring/come_out_and_play_tab_ver_4.html ]
E---------------------------------------------------------
B---------------------------------------------------------
G---------------------------------------------------------
D-----1-2-4-2-1-------------------------------------------
A-2-3-----------3-2-3-2-3-2-------------------------------
E---------------------------------------------------------

E---------------------------------------------------------
B---------------------------------------------------------
G---------------------------------------------------------
D-----1-2-4-2-1-------------------------------------------
A-2-3-----------3-2-3-2-3-2-3-2-3-2------------------------
E---------------------------------------------------------

E---------------------------------------------------------
B---------------------------------------------------------
G---------------------------------------------------------
D-----1-2-4-2-1-------------------------------------------
A-2-3-----------3-2-3-2-3-2-------------------------------
E---------------------------------------------------------

Hope this helps!!!
Comments