Offspring - Come Out And Play Chords & Tabs

 

Come Out And Play Chords & Tabs

Offspring Chords & Tabs

Version: 3 Type: Tab 1 rating
1 star 2 stars 3 stars 4 stars 5 stars
comments

Come Out And Play Tab

come out and play
offspring
standard tuming:E
BY:Dan Barnes

 Intro:
---------------------------------------------------------------------
---------------------------------------------------------------------
---------------------------------------------------------------------
--4--7------------X4-------------------------------------------------
--2--5---2--5--------------------------------------------------------
---------4--7--------------------------------------------------------

 riff:
------777/---10---/555-----------------------------------------------
------777/---10---/555-----------------------------------------------
--------------------------X4-----------------------------------------
---------------------------------------------------------------------
---------------------------------------------------------------------
---------------------------------------------------------------------
[ Tab from: http://www.guitartabs.cc/tabs/o/offspring/come_out_and_play_tab_ver_3.html ]
 riff 2:
---------------------------------------------------------------------
---------------------------------------------------------------------
---------------------------------------------------------------------
-------1-2/-4-/2--1----------------X3 then-end-with----1------------
---2-3--------------3-2-2-2-2-3-2------------------------3-2---------
---------------------------------------------------------------------
                      _______:up and down picking

 verse: muted
---------------------------------------------------------------------
---------------------------------------------------------------------
---------------------------------------------------------------------
--444------------444--77---------------------------------------------
--222--444---77--222--55--4--77--------------------------X2----------
-------222---55-----------2--55--------------------------------------
 
 little thing:
---------------------------------------------------------------------
---------------------------------------------------------------------
---------------------------------------------------------------------
-----99/-12-12---11--12-11------------------------X2-----------------
-----77/-10 10----9--10--9---9--12-----------------------------------
-----------------------------7--10-----------------------------------

 back to intro

 then: uted
---------------------------------------------------------------------
---------------------------------------------------------------------
---------------------------------------------------------------------
---------------------------------------------------------------------
----4444-4444-4444-4-------------------------------------------------
----2222-2222-2222-2-------------------------------------------------

 then the intro some more times 
 so thats it have fun !!!!!!!!!!!!!!!

 
Comments