Offspring - Come Out And Play Chords & Tabs

 

Come Out And Play Chords & Tabs

Offspring Chords & Tabs

Version: 2 Type: Tab 2 ratings
1 star 2 stars 3 stars 4 stars 5 stars
comments

Come Out And Play Tab

Randy Moore
Offspring
Come Out and Play

x:mute w/ palm
/:slide up

Intro:
It goes pretty fast, so take it a little at a time if you want,but
it is meant to be played fast.
------------------------------------------------------------------
------------------------------------------------------------------
------------------------------------------------------------------
---------3--------------------------------------------------------
-----3-4---5-4-3--------------------------------------------------
-3-6-------------3-3-4-3------------------------------------------
[ Tab from: http://www.guitartabs.cc/tabs/o/offspring/come_out_and_play_tab_ver_2.html ]
Verse or chorus:
I haven't heard the song that much, so this is either the chorus
or the verse. I don't know which one, but you can figure it out.
Repeat 1st part 2x:
2nd part is palm muted.
-----------------------------------------------------------------
-----------------------------------------------------------------
---1st-------------2nd-------------------------------------------
---3-------------------------------------------------------------
-5-1-3-3-------------5-x-x-x-------------------------------------
-3---1-1-------------3-------------------------------------------

Then:
Repeat 2x:
1st part 2x:         2nd part 2x:     3rd part 2x:
-----------------------------------------------------------------
-----------------------------------------------------------------
-----1st----------------2nd-------------3rd----------------------
--5-5-8-7-/-8-7---------3--------7-7-7-7-7-7-7-7-----------------
--3-3-6-5-/-6-5-5-----5-1-3-3----5-5-5-5-5-5-5-5-----------------
----------------3-----3---1-1------------------------------------

   Well thats it, remember that the first part is the harder part,
and to palm mute that other part. Besides that the rest of the song 
is really quite easy. If you have any comments or questions,e-mail
me at zorpheus99@hotmail.com, or zorpheus99@aol.com 





Comments