Offspring - Come Out And Play Chords & Tabs

 

Come Out And Play Chords & Tabs

Offspring Chords & Tabs

Version: 13 Type: Tab 0 ratings
1 star 2 stars 3 stars 4 stars 5 stars
comments

Come Out And Play Tab

Song By The OffSpring, this is a tab made up by me Chris Yeldob that 
                        is exactly how the song goes, u'll see

AIM=GrimmReaper201 (if you need any help)

Please listen to the song or at least have the song on your computer
before trying to play this

table of meanings
X=sctrach

(Intro)   (After you have played those and the beating is over it says 
                         "You Gotta Keep em Separated" )
e|-----------------------------------------------------|
b|-----------------------------------------------------|
g|--------------------------9-9-9----------------------|
D|--------------------------9-9-9----------------------|
A|-----------------------------------------------------|
E|-----------------------------------------------------|
                            
(Guitar 1) Rhythm:    (Repeat 8x)
e|-----------------------------|
b|-----------------------------|
g|---4-----X---7---X-----------|
D|---4-----X---7---X---4---7---|
A|---2-----X---5---X---4---7---|
E|---------------------2---5---|

             (Come in after Guitar 1 
(Guitar 2)    has played 4x and then play this 4x)
e|-----------------------------------|
b|-----------------------------------|
g|--11--11--11----14--14----9--9--9--|
D|--9---9---9-----12--12----7--7--7--|
A|-----------------------------------|
E|-----------------------------------|

Lead Guitar riff     (Repeat 4x)  (Repeat 3x)
e|------------------------------|-----------|
b|------------------------------|-----------|
g|------------------------------|-----------|
D|--------1--2--2/4/2--1--------|-----------|
A|--2--3------------------3--2--|--2--3--2--|
E|------------------------------|-----------|

Verse:                                       (Repeat 4x)
e|-----------------------------------------------------|
b|-----------------------------------------------------|
g|--4--4--4-----------------4--4--4---7--X-------------|
D|--4--4--4---4--4--4---7---4--4--4---7--X---4---7-----|
A|--2--2--2---4--4--4---7---2--2--2---5--X---4---7-----|
E|------------2--2--2---5--------------------2---5-----|

                                          (Repeat 2x)
e|--------------------------------------------------|
b|--------------------------------------------------|
g|--9--9--9----12--12--12----11--11--11-------------|
D|--9--9--9----12--12--12----11--11--11----9--9--9--|
A|--7--7--7----10--10--10----9---9---9-----9--9--9--|
E|-----------------------------------------7--7--7--|


e|-----------------------------------------------------|
b|-----------------------------------------------------|
g|--4--4--4-----------------4--4--4---7--X-------------|
D|--4--4--4---4--4--4---7---4--4--4---7--X---4---7-----|
A|--2--2--2---4--4--4---7---2--2--2---5--X---4---7-----|
E|------------2--2--2---5--------------------2---5-----|


e|-----------------------------------------------|
b|-----------------------------------------------|
g|--11---11---11---11---11-11-11-11-11-11-11-11--|
D|--11---11---11---11---11-11-11-11-11-11-11-11--|
A|--9----9----9----9----9--9--9--9--9--9--9--9---|
E|-----------------------------------------------|


(Repeat 3x and on last time play the note between the 2 bars 
         and say "Keep Em Separated")
e|----------------------------|-----|
b|----------------------------|-----|
g|---4-----X---7---X----------|--4--|
D|---4-----X---7---X---4---7--|--4--|
A|---2-----X---5---X---4---7--|--2--|
E|---------------------2---5--|-----|


(Repeat 3x and on last time play the note between the 2 bars 
         and say "Keep Em Separated")
e|----------------------------|-----|
b|----------------------------|-----|
g|---4-----X---7---X----------|--4--|
D|---4-----X---7---X---4---7--|--4--|
A|---2-----X---5---X---4---7--|--2--|
E|---------------------2---5--|-----|

                     (Repeat 2x)
e|-----------------------------|
b|-----------------------------|
g|---4-----X---7---X-----------|
D|---4-----X---7---X---4---7---|
A|---2-----X---5---X---4---7---|
E|---------------------2---5---|


e|------------------------------|
b|------------------------------|
g|--12--12--12--12--12--12--12--|
D|--12--12--12--12--12--12--12--|
A|--10--10--10--10--10--10--10--|
E|------------------------------|


e|--------------------------------------------------|
b|--5--5--5--5--5--5--5----4--4--4------------------| 
D|--5--5--5--5--5--5--5----4--4--4----4--4--4----7--|
A|--3--3--3--3--3--3--3----2--2--2----4--4--4----7--|
E|------------------------------------2--2--2----5--|


e|-------------------------------------------------------|
b|-------------------------------------------------------|
g|-------------------------4--4--4--------------------4--|
D|--4--4--4--4--4--4--4----4--4--4----4--4--4----7----4--|
A|--4--4--4--4--4--4--4----2--2--2----4--4--4----7----2--|
E|--2--2--2--2--2--2--2---------------2--2--2----5-------|


Lead Guitar riff     (Repeat 4x)  (Repeat 3x)
e|------------------------------|-----------|
b|------------------------------|-----------|
g|------------------------------|-----------|
D|--------1--2--2/4/2--1--------|-----------|
A|--2--3------------------3--2--|--2--3--2--|
E|------------------------------|-----------|

Verse:                                       (Repeat 4x)
e|-----------------------------------------------------|
b|-----------------------------------------------------|
g|--4--4--4-----------------4--4--4---7--X-------------|
D|--4--4--4---4--4--4---7---4--4--4---7--X---4---7-----|
A|--2--2--2---4--4--4---7---2--2--2---5--X---4---7-----|
E|------------2--2--2---5--------------------2---5-----|
[ Tab from: http://www.guitartabs.cc/tabs/o/offspring/come_out_and_play_tab_ver_13.html ]
                                          (Repeat 2x)
e|--------------------------------------------------|
b|--------------------------------------------------|
g|--9--9--9----12--12--12----11--11--11-------------|
D|--9--9--9----12--12--12----11--11--11----9--9--9--|
A|--7--7--7----10--10--10----9---9---9-----9--9--9--|
E|-----------------------------------------7--7--7--|


e|-----------------------------------------------------|
b|-----------------------------------------------------|
g|--4--4--4-----------------4--4--4---7--X-------------|
D|--4--4--4---4--4--4---7---4--4--4---7--X---4---7-----|
A|--2--2--2---4--4--4---7---2--2--2---5--X---4---7-----|
E|------------2--2--2---5--------------------2---5-----|


e|-----------------------------------------------|
b|-----------------------------------------------|
g|--11---11---11---11---11-11-11-11-11-11-11-11--|
D|--11---11---11---11---11-11-11-11-11-11-11-11--|
A|--9----9----9----9----9--9--9--9--9--9--9--9---|
E|-----------------------------------------------|


(Repeat 3x and on last time play the note between the 2 bars 
         and say "Keep Em Separated")
e|----------------------------|-----|
b|----------------------------|-----|
g|---4-----X---7---X----------|--4--|
D|---4-----X---7---X---4---7--|--4--|
A|---2-----X---5---X---4---7--|--2--|
E|---------------------2---5--|-----|


(Repeat 3x and on last time play the note between the 2 bars 
         and say "Keep Em Separated")
e|----------------------------|-----|
b|----------------------------|-----|
g|---4-----X---7---X----------|--4--|
D|---4-----X---7---X---4---7--|--4--|
A|---2-----X---5---X---4---7--|--2--|
E|---------------------2---5--|-----|

                     (Repeat 2x)
e|-----------------------------|
b|-----------------------------|
g|---4-----X---7---X-----------|
D|---4-----X---7---X---4---7---|
A|---2-----X---5---X---4---7---|
E|---------------------2---5---|


e|------------------------------|
b|------------------------------|
g|--12--12--12--12--12--12--12--|
D|--12--12--12--12--12--12--12--|
A|--10--10--10--10--10--10--10--|
E|------------------------------|


e|--------------------------------------------------|
b|--5--5--5--5--5--5--5----4--4--4------------------| 
D|--5--5--5--5--5--5--5----4--4--4----4--4--4----7--|
A|--3--3--3--3--3--3--3----2--2--2----4--4--4----7--|
E|------------------------------------2--2--2----5--|


e|-------------------------------------------------------|
b|-------------------------------------------------------|
g|-------------------------4--4--4--------------------4--|
D|--4--4--4--4--4--4--4----4--4--4----4--4--4----7----4--|
A|--4--4--4--4--4--4--4----2--2--2----4--4--4----7----2--|
E|--2--2--2--2--2--2--2---------------2--2--2----5-------|


Lead Guitar riff               (Repeat 4x)  
e|---------------------------------------|
b|---------------------------------------|
g|---------------------------------------|
D|--------1--2--2/4/2--1-----------------|
A|--2--3------------------3--2--2--3--2--|
E|---------------------------------------|


                                          (Repeat 2x)
e|--------------------------------------------------|
b|--------------------------------------------------|
g|--9--9--9----12--12--12----11--11--11-------------|
D|--9--9--9----12--12--12----11--11--11----9--9--9--|
A|--7--7--7----10--10--10----9---9---9-----9--9--9--|
E|-----------------------------------------7--7--7--|


e|-----------------------------------------------------|
b|-----------------------------------------------------|
g|--4--4--4-----------------4--4--4---7--X-------------|
D|--4--4--4---4--4--4---7---4--4--4---7--X---4---7-----|
A|--2--2--2---4--4--4---7---2--2--2---5--X---4---7-----|
E|------------2--2--2---5--------------------2---5-----|


e|-----------------------------------------------|
b|-----------------------------------------------|
g|--11---11---11---11---11-11-11-11-11-11-11-11--|
D|--11---11---11---11---11-11-11-11-11-11-11-11--|
A|--9----9----9----9----9--9--9--9--9--9--9--9---|
E|-----------------------------------------------|


(Repeat 3x and on last time play the note between the 2 bars 
         and say "Keep Em Separated")
e|----------------------------|-----|
b|----------------------------|-----|
g|---4-----X---7---X----------|--4--|
D|---4-----X---7---X---4---7--|--4--|
A|---2-----X---5---X---4---7--|--2--|
E|---------------------2---5--|-----|


(Repeat 3x and on last time play the note between the 2 bars 
         and say "Keep Em Separated")
e|----------------------------|-----|
b|----------------------------|-----|
g|---4-----X---7---X----------|--4--|
D|---4-----X---7---X---4---7--|--4--|
A|---2-----X---5---X---4---7--|--2--|
E|---------------------2---5--|-----|

                     (Repeat 2x)
e|-----------------------------|
b|-----------------------------|
g|---4-----X---7---X-----------|
D|---4-----X---7---X---4---7---|
A|---2-----X---5---X---4---7---|
E|---------------------2---5---|


e|------------------------------|
b|------------------------------|
g|--12--12--12--12--12--12--12--|
D|--12--12--12--12--12--12--12--|
A|--10--10--10--10--10--10--10--|
E|------------------------------|


e|--------------------------------------------------|
b|--5--5--5--5--5--5--5----4--4--4------------------| 
D|--5--5--5--5--5--5--5----4--4--4----4--4--4----7--|
A|--3--3--3--3--3--3--3----2--2--2----4--4--4----7--|
E|------------------------------------2--2--2----5--|


e|-------------------------------------------------------|
b|-------------------------------------------------------|
g|-------------------------4--4--4--------------------4--|
D|--4--4--4--4--4--4--4----4--4--4----4--4--4----7----4--|
A|--4--4--4--4--4--4--4----2--2--2----4--4--4----7----2--|
E|--2--2--2--2--2--2--2---------------2--2--2----5-------|


there that is the whole song just play it in that order 
its not very hard

if you would like to know the lyrics go to www.lyrics.com and 
search for offspring and then Come Out and Play, l8r mon
Comments