Offspring - Come Out And Play Chords & Tabs

 

Come Out And Play Chords & Tabs

Offspring Chords & Tabs

Version: 12 Type: Tab 0 ratings
1 star 2 stars 3 stars 4 stars 5 stars
comments

Come Out And Play Tab

   
Song Name:Come Out and Play
Band:Offspring
Tuning:Standard
Key: /=slide up

This, in my opinion is one of the tightest Offspring songs.

Intro  The 5/5 is played when the drum stops for a sec.
e-------------------------------------------------------|
B-------------------------------------------------------|
G-------------------------------------------------------|
D-5-5-5-6-6-6/9-----6-6-6/9-----6-6-6/9-----6-6-6/9-----|
A-5-5-5-4-4-4/7-4/7-4-4-4/7-4/7-4-4-4/7-4/7-4-4-4/7-4/7-|
E---------------2/5---------2/5---------2/5---------2/5-|

Intro pt.2  This is played 4 times.
e-------------------------|
B-------------------------|
G-11-11-11-14-14-14-------|
D-------------------14-14-|
A-------------------------|
E-------------------------|

Pre-Verse pt.1 Play this three times.
e-------------------------|
B-------------------------|
G-------------------------|
D-----1-2-4-2-1-----------|
A-2-3-----------3-2-2-3-2-|
E-------------------------|

Pre-Verse pt.2 Play once.
e-------------------|
B-------------------|
G-------------------|
D-----1-2-4-2-1-----|
A-2-3-----------2-2-|
E-------------------|
[ Tab from: http://www.guitartabs.cc/tabs/o/offspring/come_out_and_play_tab_ver_12.html ]
Verse pt.1 Play this four times.
e-------------------------|
B-------------------------|
G-------------------------|
D-4-4-4-------4-4-4/7-----|
A-2-2-2-4-4/7-2-2-2/5-4/7-|
E-------2-2/5---------2/5-|

Verse pt.2 Play this twice
e----------------------|
B----------------------|
G----------------------|
D-9-9-12-12-11-11-11---|
A-7-7-10-10-9--9--9--9-|
E--------------------7-|

Choras pt.1  Play this four times
e-----------------|
B-----------------|
G-----------------|
D-9-9-9-9-9-9-9-9-|
A-7-7-7-7-7-7-7-7-|
E-----------------|

Choras pt.2  Every third time play a 5/2 after the 6/5. Play 8 times.
e-------------|
B-------------|
G-------------|
D-4-4-4/7-----|
A-2-2-2/5-4/7-|
E---------2/5-|

Choras pt.3 Play this once.
e-------------------------|
B-------------------------|
G-------------------------|
D-9-9-9-9-5-5-5-5-5-5-5-5-|
A-7-7-7-7-3-3-3-3-3-3-3-3-|
E-------------------------|

Song Order:
Intro pt.1 x1
Intro pt.2 x4
Pre-Verse pt.1 x3
Pre-Verse pt.2 x1
Verse pt.1 x4
Verse pt.2 x2
Verse pt.1 x1
Choras pt.1 x4
Choras pt.2 x8
Choras pt.3 x1
Choras pt.2 x3
Pre-Verse pt.1 x3
Pre-Verse pt.2 x1
Verse pt.1 x4
Verse pt.2 x2
Verse pt.1 x1
Choras pt.1 x4
Choras pt.2 x8
Choras pt.3 x1
Choras pt.2 x3
Pre-Verse pt.1 x4
Verse pt.2 x2
Verse pt.1 x1
Choras pt.1 x4
Choras pt.2 x8
Choras pt.3 x1
Choras pt.2 x3
Comments