Offspring - Come Out And Play Chords & Tabs

 

Come Out And Play Chords & Tabs

Offspring Chords & Tabs

Version: 10 Type: Tab 0 ratings
1 star 2 stars 3 stars 4 stars 5 stars
comments

Come Out And Play Tab

THE OFFSPRING
COME OUT AND PLAY

(played at beginning and at end of verse)
E-------------
B-------------
G---11-11-11--
D---11-11-11--
A----9--9--9--
E-------------

INTRO(guitar 1)        (guitar 2)   
E--------------        E------------------
B--------------        B------------------
G---444-7------        G---11-11-11/14\9--
D---444-7-4-7--        D----9--9--9/12\7--
A---222-5-4-7--        A------------------
E---------2-5--        E------------------

EGYPTIAN RIFF(guitar 1)(guitar 2 plays verse)      
E-------------------------
B-------------------------
G-------------------------
D-------1h2/4\2-1---------
A---2h3----------3-222-3-2
E-------------------------
[ Tab from: http://www.guitartabs.cc/tabs/o/offspring/come_out_and_play_tab_ver_10.html ]
VERSE (palm muted)
E----------------------------
B----------------------------
G----------------------------
D---444-4-4/7-----444/7-4/7--
A---222-4-4/7-----222/5-4/7--
E-------2-2/5-----------2/5--

(kids stake their own campus locals)
E-----------------------
B-----------------------
G---99-12-12-11-11------
D---99-12-12-11-11-999--
A---77-10-10-9--9--999--
E------------------777--

CHORUS
E----------------------------------------
B----------------------------------------
G---444-7-----444-7-----444-7-----4------
D---444-7-4-7-444-7-4-7-444-7-4-7-4-(x2)-
A---222-5-4-7-222-5-4-7-222-5-4-7-2------
E---------2-5-------2-5-------2-5--------

E----------------------------------
B----------------------------------
G---444-7-----444-7------9999-5555-
D---444-7-4-7-444-7-4-7--9999-5555-
A---222-5-4-7-222-5-4-7--7777-3333-
E---------2-5-------2-5------------

E------------------------------
B------------------------------
G---444-7----------444-7-----4-
D---444-7-4-7-4444-444-7-4-7-4-
A---222-5-4-7-4444-222-5-4-7-2-
E---------2-5-2222-------2-5---
Comments