Offspring - Come Out And Play Chords & Tabs

 

Come Out And Play Chords & Tabs

Offspring Chords & Tabs

Version: 3 Type: Bass Tab 0 ratings
1 star 2 stars 3 stars 4 stars 5 stars
comments

Come Out And Play Bass Tab

------------------------------------------------------------------
		    Offspring-Come out and Play
------------------------------------------------------------------

|-----------------------------------------|
|--0----0----0----0----0----0----0----0---|
|-2--0-2--0-2--0-2--0-2--0-2--0-2--0-2--0-|
|---2----2----2----2----2----2----2----2--|

|------------------------------------------------------
|------------------------------------------------------
|-2-----0-2-5--2-----0-2-5---2-----0-2-5--2-----0-2-5--
|---2-2------5---2-2------5----2-2------5---2-2------5-

------------------------------------------------------|
------------------------------------------------------|
-2-----0-2-5--2-----0-2-5---2-----0-2-5--2-----0-2-5--|
---2-2------5---2-2------5----2-2------5---2-2------5-|

|--------------------------------------------------|--------------|
|--------------------------------------------------|--------------|
|-7-7-7-10-10-9-9-9--------7-7-7-10-10-9-9-9-------|-2---0-2-5-9**|
|-------------------7-7-7--------------------7-7-7-|--2-2-----5---|

|-------------------------------------------------------------|
|--0----0----0-------0----0----0-------0----0--2*----0----0---|
|-2--0-2--0-2--0-2--2--0-2--0-2--0-2--2--0-2--0--3*-2--0-2--0-|
|---2----2----2-------2----2----2-------2----2--------2-2--2--|

|------------------------------------------------------
|------------------------------------------------------
|-2-----0-2-5--2-----0-2-5---2-----0-2-5--2-----0-2-5--
|---2-2------5---2-2------5----2-2------5---2-2------5-
[ Tab from: http://www.guitartabs.cc/tabs/o/offspring/come_out_and_play_btab_ver_3.html ]
------------------------------------------------------|
------------------------------------------------------|
-2-----0-2-5--2-----0-2-5---2-----0-2-5--2-----0-2-5--|
---2-2------5---2-2------5----2-2------5---2-2------5-|


|--------------------------------------------------|--------------|
|--------------------------------------------------|--------------|
|-7-7-7-10-10-9-9-9--------7-7-7-10-10-9-9-9-------|-2---0-2-5-9**|
|-------------------7-7-7--------------------7-7-7-|--2-2-----5---|

|-------------------------------------------------------------|
|--0----0----0-------0----0----0-------0----0--2*----0----0---|
|-2--0-2--0-2--0-2--2--0-2--0-2--0-2--2--0-2--0--3*-2--0-2--0-|
|---2----2----2-------2----2----2-------2----2--------2-2--2--|


|------------------------------------------------------|
|------------------------------------------------------|
|-2-----0-2-5--2-----0-2-5---2-----0-2-5--2-----0-2-5--|
|---2-2------5---2-2------5----2-2------5---2-2------5-|

|--------------------------------------------------|--------------|
|--------------------------------------------------|--------------|
|-7-7-7-10-10-9-9-9--------7-7-7-10-10-9-9-9-------|-2---0-2-5-9**|
|-------------------7-7-7--------------------7-7-7-|--2-2-----5---|

|-------------------------------------------------------------|
|--0----0----0-------0----0----0-------0----0--2*----0----0---|
|-2--0-2--0-2--0-2--2--0-2--0-2--0-2--2--0-2--0--3*-2--0-2--0-|
|---2----2----2-------2----2----2-------2----2--------2-2--2--|

 Thats it! i set it up so that you just play everything in order as
written, its kinda hard at first, but it's really easy with practice.
i played this one live, its not that bad. When printed to note pad,
this song takes up 2 pgs
					angie@wakeboarder.com
Comments