Offspring - Change The World Chords & Tabs

 

Change The World Chords & Tabs

Offspring Chords & Tabs

Version: 1 Type: Bass Tab 0 ratings
1 star 2 stars 3 stars 4 stars 5 stars
comments

Change The World Bass Tab

Song: Change the World
Artist: The Offspring
Album: Ixnay on the Hombre
Bass Tab (Revised)
Revised Version by Adam Evans (aevans@i4free.co.nz)

The initial tab that was floating round had quite a few problems in 
it, so here is a revised one i made.


Main Riff

G|---------------------------------|
D|---------------------------------|
A|-------------------------2-2-2-2-|
E|-2-2-2-2-2-2-2-2-0-0-0-0---------|

This is used in the verse and the 'End of Smash' riff.

Chorus

G|-----------------------------------------------------------------|
D|-----------------2-2-2-2-2-2-2-2---------------------------------|
A|-0-0-0-0-0-0-0-0-----------------2-2-2-2-2-2-2-2-2-2-2-2-2-2-2-2-|
E|-----------------------------------------------------------------|

This is played twice and at the end of the second time it is

G|-----------------|
D|-------0-0-0-2-2-|
A|-4-4-4-----------|
E|-----------------|
[ Tab from: http://www.guitartabs.cc/tabs/o/offspring/change_the_world_btab.html ]
Then this bit
								X2
G|------------------------------------------------------------------|
D|------------------2-2-2-2-2-2-2-2-----------------4-4-4-4-4-4-4-4-|
A|----------------------------------2-2-2-2-2-2-2-2-----------------|
E|--2-2-2-2-2-2-2-2-------------------------------------------------|

Then this bit (but not the first time, though)

G|------------------------------------------------------------------|
D|------------------2-2-2-2-2-2-2-2-----------------------0-0-0-2-2-|
A|----------------------------------2-2-2-2-2-2-2-2-4-4-4-----------|
E|--2-2-2-2-2-2-2-2-------------------------------------------------|

G|--------------------------------------------------|
D|--------------------------2-2-2-2-----------------|
A|------------------0-0-0-0-------------------------|
E|--2-2-2-2-2-2-2-2-----------------2-2-2-2-2-2-2-2-|






G|---------------------------------------------------------|
D|---------2-2-2-2-------------------------2-2-----4-------|
A|-0-0-0-0-------------------------0-0---------------------|
E|-----------------2-2-2-2-2-2-2-2-------------------------|



The last note

G|---------|
D|---------|
A|---------|
E|--2------|


Comments