Offspring - Can't Repeat Chords & Tabs

 

Can't Repeat Chords & Tabs

Offspring Chords & Tabs

Version: 8 Type: Tab 0 ratings
1 star 2 stars 3 stars 4 stars 5 stars
comments

Can't Repeat Tab

   
----------------------------------------------------------------------------
			     Can't Repeat - The Offspring
----------------------------------------------------------------------------
Tabbed by: llama_slap
Email: sk84life@adelphia.net

Tuning: Normal (EADGBe)

Yo, this is my first tab, so I hope you like it. This is my version of Can't Repeat by
the Offspring, and it sounds right to me.  
PLEASE rate, leave comments and email me with any questions.

UPDATE! I added octaves as seen in the video.  


INTRO (Guitar 1)
e|----------------------------------------------------------|
B|----------------------------------------------------------|
G|-----/14-12-12-9-9-7-7-9-------17-16-14-12-14-------------| 
D|7-----x--x--x--x-x-x-x-x--(x2)-x--x--x--x--x--------------|
A|x----/12-10-10-7-7-5-5-7-------15-14-12-10-12-------------|
E|5---------------------------------------------------------|

INTRO (Guitar 1 con't)
e|----------------------------------------------------------|
B|----------------------------------------------------------|
G|-17-16-14-12-14-12-(14) play this the 2nd time------------|
D|-x--x--x--x--x--x--(x)----------let ring------------------|
A|-15-14-12-10-12-10-(12)-----------------------------------|
E|----------------------------------------------------------|

INTRO (Guitar 2)/CHORUS 
e|----------------------------------------------------------|
B|----------------------------------------------------------|
G|-----------5----------------------------------------------|
D|--7--------5--(x8)--3--------5----------------------------|
A|--7--(x8)--3--------3--(x8)--5--(x8)----------------------|
E|--5-----------------1--------3----------------------------|

VERSE 
 e|---------------------------------------------------------|
B|----------------------------------------------------------|
G|------------------55--5-----------------------------------|
D|-----77--7--------55--5--(x4)--33--3--------55--5---------|
A|-----77--7--(x4)--33--3--------33--3--(x4)--55--5--(x4)---|
E|-----55--5---------------------11--1--------33--3---------|
       **           **           **           **
[ Tab from: http://www.guitartabs.cc/tabs/o/offspring/cant_repeat_tab_ver_8.html ]
INTERLUDE
e|------------------|
B|------------------|
G|------------------|
D|---77--7----------|
A|---77--7--(x16)---|
E|---55--5----------|
     **

VERSE 3
e|-----------------------------------------------------------|
B|-----------------------------------------------------------|
G|-----------------------------55----------------------5-----|
D|--/pickslide/----77----//----55----//----33-3-3-35---5-5---|
A|--/pickslide/----77----//----33----//----33-3-3-35---3-5---|
E|-----------------55----//----------//----11-1-1-13-----3---|

OUTRO 1 (it sounds like there is an effect used, i don't know which one
                   though...sorry!)
e|-----------------------------------------------------------|
B|-----------------------------------------------------------|
G|-2--4--5-7-9-12------17--16--17-16-14-12-14----------------|
D|-x--x--x-x-x-x-------x---x---x--x--x--x--x-----------------|
A|-0--2--3-5-7-9-------15--14--15-14-12-10-12----------------|
E|-----------------------------------------------------------|

OUTRO 2
e|-----------------------------------------------------------|
B|-----------------------------------------------------------|
G|-----------------------------------------------------------|
D|--77-7-77-7-77-7-77-7-77-7-77-7-7--------------------------|
A|--77-7-77-7-77-7-77-7-77-7-77-7-7--------------------------|
E|--55-5-55-5-55-5-55-5-55-5-55-5-5--------------------------|
    **   **   **   **   **   **

SONG ORDER:

Intro (Guitar 1) x2
Intro (Guitar 2)/Chorus  x2
Verse x2
Intro (Guitar 2)/Chorus  x2
Intro (Guitar 1) x2
Intro (Guitar 2)/Chorus  x2
Verse x2
Intro (Guitar 2)/Chorus  x2
Intro (Guitar 1) x2
Intro (Guitar 2)/Chorus  x2
Interlude
Verse 3
Intro (Guitar 2)/Chorus x3
Outro 1
Outro 2

NOTE!!!!!: since there are two guitars, some of these parts
interlock and are played while
another part is played. it's not that hard to figure out when 
you play what though, just listen to the song.



(14) play this the last time, before the verse and let it ring
*   Palm mute
| /  slide up
| \  slide down
| h  hammer-on
| p  pull-off
| ~  vibrato
| +  harmonic
| x  Mute note
============================================================================
Comments