Offspring - Can't Repeat Chords & Tabs

 

Can't Repeat Chords & Tabs

Offspring Chords & Tabs

Version: 7 Type: Tab 0 ratings
1 star 2 stars 3 stars 4 stars 5 stars
comments

Can't Repeat Tab

song-Cant Repeat
Artist-Offspring
Album-Greatest Hits 2005 (June 21)
Words and Music by-Brian(Dexter)Holland, Noodles and Greg K
Tuning-Standard
Tabbed by-Smellslikefeet1

This is my very first of i hope many, offspring tabs. This is the new song Released on
their new greatest hits CD in stores June 21st of this year.If ya wanna play it to the
song download it or go to www.offspring.com and go to music. Click greatest hits and it
should be the first song on there. I also suggest checking out the video.Those of you who
say the offspring are washed up and shoudlnt even try writing songs anymore should listen
to it.

/-slide up
\slide down
x-mute
~let ring

Intro

Dexter:Noodles.
|---|------------|
|---|------------|
|---|------------|
|---|-x-7-x-x-7--|X8
|---|-x-7-x-x-7--|
|1/5|-x-5-x-x-5--|



Outro from Chorus:
dexter:
|---------|---------|---------|---------|---------|---------|
|---------|---------|---------|---------|---------|---------|
|---------|---------|-5-5-5-5-|-5-5-5-5-|---------|---------|
|-7-7-7-7-|-7-7-7-7-|-5-5-5-5-|-5-5-5-5-|-3-3-3-3-|-3-3-3-3-|
|-7-7-7-7-|-7-7-7-7-|-3-3-3-3-|-3-3-3-3-|-3-3-3-3-|-3-3-3-3-|
|-5-5-5-5-|-5-5-5-5-|---------|---------|-1-1-1-1-|-1-1-1-1-|

|---------|---------|
|---------|---------|
|---------|---------|
|---------|---------|X2
|-5-5-5-5-|-5-5-5-5-|
|-3-3-3-3-|-3-3-3-3-|

Noodles: play over dexters part
|-------------|-------------|----------------|----------------------|
|-------------|-------------|----------------|----------------------|
|-14-12-12--9-|-9--7-7--9---|-17-14-14-12-14~|-17-14-14-12-14~17-14-|
|--x--x--x--x-|-x--x-x--x-x2|--x--x--x--x--x-|--x--x--x--x--x--x--x-|X2
|-12-10-10--7-|-7--5-5--7---|-15-12-12-10-12~|-15-12-12-10-12~15-12-|
|-------------|-------------|----------------|----------------------|


Verse.
dexter and noodles.
|------------|-----------|------------|-------------|
|------------|-----------|------------|-------------|
|------------|-----------|-x-5-x-x-5--|-x-5-x-x-5---|
|-x-7-x-x-7--|-x-7-x-x-7-|-x-5-x-x-5--|-x-5-x-x-5---|
|-x-7-x-x-7--|-x-7-x-x-7-|-x-3-x-x-3--|-x-3-x-x-3---|
|-x-5-x-x-5--|-x-5-x-x-5-|------------|-------------|

|------------|------------|------------|------------|
|------------|------------|------------|------------|
|------------|------------|------------|------------|
|-x-3-x-x-3--|-x-3-x-x-3--|-x-5-x-x-5--|-x-5-x-x-5--|X2
|-x-3-x-x-3--|-x-3-x-x-3--|-x-5-x-x-5--|-x-5-x-x-5--|
|-x-1-x-x-1--|-x-1-x-x-1--|-x-3-x-x-3--|-x-3-x-x-3--|

Chorus:

Noodles and Dexter
[ Tab from: http://www.guitartabs.cc/tabs/o/offspring/cant_repeat_tab_ver_7.html ]
|---------|---------|---------|---------|---------|---------|
|---------|---------|---------|---------|---------|---------|
|---------|---------|-5-5-5-5-|-5-5-5-5-|---------|---------|
|-7-7-7-7-|-7-7-7-7-|-5-5-5-5-|-5-5-5-5-|-3-3-3-3-|-3-3-3-3-|
|-7-7-7-7-|-7-7-7-7-|-3-3-3-3-|-3-3-3-3-|-3-3-3-3-|-3-3-3-3-|
|-5-5-5-5-|-5-5-5-5-|---------|---------|-1-1-1-1-|-1-1-1-1-|

|---------|---------|
|---------|---------|
|---------|---------|
|-5-5-5-5-|-5-5-5-5-|X2
|-5-5-5-5-|-5-5-5-5-|
|-3-3-3-3-|-3-3-3-3-|

Chorus Outro

|---------|---------|---------|---------|---------|---------|
|---------|---------|---------|---------|---------|---------|
|---------|---------|-5-5-5-5-|-5-5-5-5-|---------|---------|
|-7-7-7-7-|-7-7-7-7-|-5-5-5-5-|-5-5-5-5-|-3-3-3-3-|-3-3-3-3-|
|-7-7-7-7-|-7-7-7-7-|-3-3-3-3-|-3-3-3-3-|-3-3-3-3-|-3-3-3-3-|
|-5-5-5-5-|-5-5-5-5-|---------|---------|-1-1-1-1-|-1-1-1-1-|

|---------|---------|
|---------|---------|
|---------|---------|
|---------|---------|X2
|-5-5-5-5-|-5-5-5-5-|
|-3-3-3-3-|-3-3-3-3-|

Noodles: play over dexters part
|-------------|-------------|----------------|----------------------|
|-------------|-------------|----------------|----------------------|
|-14-12-12--9-|-9--7-7--9---|-17-14-14-12-14-|-17-14-14-12-14-17-14-|
|--x--x--x--x-|-x--x-x--x-x2|--x--x--x--x--x-|--x--x--x--x--x--x--x-|X2
|-12-10-10--7-|-7--5-5--7---|-15-12-12-10-12-|-15-12-12-10-12-15-12-|
|-------------|-------------|----------------|----------------------|


REPEAT VERSE

REPEAT CHORUS

REPEAT CHORUS OUTRO


Bridge:

Dexter:Noodles.
|------------|
|------------|
|------------|
|-x-7-x-x-7--|X8
|-x-7-x-x-7--|
|-x-5-x-x-5--|

Bass (Greg)
|---------------------------------------------------------------------|
|---------------------------------------------------------------------|
|------------------3-3-3-3-3-3-3-3------------------------------------|
|-5-5-5-5-5-5-5-5------------------1-1-1-1-1-1-1-1---3-3-3-3-3-3-3-3--|

let bass go once then play these shots

Noodles:



|-------|---------|--------|-------|----------------|---------------------|
|-------|---------|--------|-------|----------------|---------------------|
|-------|---------|-5-5----|-------|----------------|---------------------|
|-7-7---|---------|-5-5----|-------|-3-3---3---3---3|-5--|everything stops|
|-7-7---|---------|-3-3----|-------|-3-3---3---3---3|-5-<|on this chord---|
|-5-5---|---------|--------|-------|-1-1-x-1-x-1-x-1|-3--|including bass--|

LIFE GOES       On
|-----------|     Chorus
|-----------|
|-----------|
|-7---5-----|
|-7---5-----|
|-5---3-----|


Noodles: end solo
play it along with the song and you should be able to get it becasue im not quite sure how to bar it
|---------------------------------------|
|---------------------------------------|
|---7-9-12-14--17-14-14-10-17-14-14-12--|
|---x-x--x--x---x--x--x--x--x--x--x--x--|
|-3/5-7-10-12--15-12-12-10-15-12-12-10--|
|---------------------------------------|


outro

noodles and Dexter

|------------|
|------------|
|------------|
|-x-7-x-x-7--|X2
|-x-7-x-x-7--|
|-x-5-x-x-5--|

|------------|
|------------|
|------------|
|-x-7-x-x-7-7|X2
|-x-7-x-x-7-7|
|-x-5-x-x-5-5|
Comments