Offspring - Can't Repeat Chords & Tabs

 

Can't Repeat Chords & Tabs

Offspring Chords & Tabs

Version: 5 Type: Tab 0 ratings
1 star 2 stars 3 stars 4 stars 5 stars
comments

Can't Repeat Tab

   
The Offspring - Can't Repeat
As recorded on their Greatest Hits album
Tabbed by Vincent Slot (vincentslot@gmail.com)

!!2nd TIME UPDATED VERSION!! 
-(changed the Interlude Riff to octaves, as seen in the video and fixed some 

details)

Intro:
   A5
e|------------------------------------|
B|------------------------------------|
G|------------------------------------|
D|-7:----7-7-7--7-7-7---7-7-7---7-7-7-|
A|-7:----7-7-7--7-7-7---7-7-7---7-7-7-|
E|-5:----5-5-5--5-5-5---5-5-5---5-5-5-|
         |--------------------------|
          Played a few times with weird effect

Verse:
   A5                          C5 
e|--------------------------------------------------------|
B|--------------------------------------------------------|
G|-----------------------------5-5-5--5-5-5--5-5-5--5-5-5-|
D|-7-7-7--7-7-7--7-7-7--7-7-7--5-5-5--5-5-5--5-5-5--5-5-5-|
A|-7-7-7--7-7-7--7-7-7--7-7-7--3-3-3--3-3-3--3-3-3--3-3-3-|
E|-5-5-5--5-5-5--5-5-5--5-5-5-----------------------------|
PM . .    . .    . .    . .    . .    . .    . .    . .

   F5                          G5
e|--------------------------------------------------------|
B|--------------------------------------------------------|
G|--------------------------------------------------------|
D|-3-3-3--3-3-3--3-3-3--3-3-3--5-5-5--5-5-5--5-5-5--5-5-5-|
A|-3-3-3--3-3-3--3-3-3--3-3-3--5-5-5--5-5-5--5-5-5--5-5-5-|
E|-1-1-1--1-1-1--1-1-1--1-1-1--3-3-3--3-3-3--3-3-3--3-3-3-|
PM . .    . .    . .    . .    . .    . .    . .    . .

Interlude Riff:
-played over 'Chorus'-

e|----------------------|
B|----------------------|
G|-14-12-12-9-9-7-7-9---|  2x
D|--x--x--x-x-x-x-x-x---|
A|-12-10-10-7-7-5-5-7---|
E|----------------------|

e|----------------------|
B|----------------------|  2x (play brackets only 2nd time)
G|-17-16-14-12-14~-(14)-|
D|--x--x--x--x--x----x--|
A|-15-14-12-10-12~-(10)-|
E|----------------------|

Let Ring into Next Part:
e|-----|
B|-----|
G|-14~-|
D|--x--|
A|-12~-|
E|-----|

Chorus:
   A5                          C5
e|--------------------------------------------------------|
B|--------------------------------------------------------|
G|------------------------------5---5-5---5-5--5-5--5-5-5-|
D|-7---7-7---7-7--7-7--7-7-7----5---5-5---5-5--5-5--5-5-5-|
A|-7---7-7---7-7--7-7--7-7-7----3---3-3---3-3--3-3--3-3-3-|
E|-5---5-5---5-5--5-5--5-5-5------------------------------|
[ Tab from: http://www.guitartabs.cc/tabs/o/offspring/cant_repeat_tab_ver_5.html ]
   F5                          G5
e|--------------------------------------------------------|
B|--------------------------------------------------------|
G|--------------------------------------------------------|
D|-3---3-3---3-3--3-3--3-3-3----5---5-5---5-5--5-5--5-5-5-|
A|-3---3-3---3-3--3-3--3-3-3----5---5-5---5-5--5-5--5-5-5-|
E|-1---1-1---1-1--1-1--1-1-1----3---3-3---3-3--3-3--3-3-3-|

Bridge:
   A5
e|----------------------------|
B|----------------------------|
G|----------------------------|   4x
D|-7-7-7--7-7-7--7-7-7--7-7-7-|
A|-7-7-7--7-7-7--7-7-7--7-7-7-|
E|-5-5-5--5-5-5--5-5-5--5-5-5-|
PM . .    . .    . .    . .    

-Bass playing root notes of verse/chorus chords, and then:

e|-------------------------------------------------|
B|-------------------------------------------------|
G|------------5-5------5-----------------------5---|
D|-7-7------7-5-5------5-3-3---3---3---3-5-----5-5-|
A|-7-7------7-3-3------3-3-3---3---3---3-5-----3-5-|
E|-5-5------5------------1-1---1---1---1-3-------3-|

Last Chorus:
   A5                          C5
e|---------------------------------------------------------|
B|---------------------------------------------------------|
G|------------------------------5---5-5---5-5--5-5--5-5-5--|
D|-7---7-7---7-7--7-7--7-7-7----5---5-5---5-5--5-5--5-5-5--|
A|-7---7-7---7-7--7-7--7-7-7----3---3-3---3-3--3-3--3-3-3--|
E|-5---5-5---5-5--5-5--5-5-5-------------------------------|

   F5                          G5
e|---------------------------------------------------------|
B|---------------------------------------------------------|
G|-10--1010--1010-1010-101010---12--1212--1212-1212-121212-|
D|-10--1010--1010-1010-101010---12--1212--1212-1212-121212-|
A|-8---8-8---8-8--8-8--8-8-8----10--1010--1010-1010-101010-|
E|---------------------------------------------------------|


Outro:

e|------------------------------------------------|
B|------------------------------------------------|
G|------------4--4-4-4-4-5-5-7-7-9-9-12-12--------|
D|-7--7-7-7-7-x--x-x-x-x-x-x-x-x-x-x--x--x--------|
A|-x--x-x-x-x-2--2-2-2-2-3-3-5-5-7-7-10-10--------|
E|-5--5-5-5-5-------------------------------------|

e|------------------------------------------------|
B|------------------------------------------------|
G|-17--17-17-17-17-16--16-16-16-16-17-16-14-12-14-|
D|--x---x--x--x--x--x---x--x--x--x--x--x--x--x--x-|
A|-15--15-15-15-15-14--14-14-14-14-15-14-12-10-12-|
E|------------------------------------------------|

e|------------------------------------------------|
B|------------------------------------------------|
G|------------------------------------------------|
D|-7-7-7---7-7-7---7-7-7---7-7-7---7-7-7---7------|
A|-7-7-7---7-7-7---7-7-7---7-7-7---7-7-7---7------|
E|-5-5-5---5-5-5---5-5-5---5-5-5---5-5-5---5------|
   . .     . .     . .     . .     . .

ORDER:

INTRO                    1X
INTERLUDE w/ CHORUS crd. 2X
VERSE                    2X
CHORUS                   2X
INTERLUDE w/ CHORUS crd. 2X
VERSE                    2X
CHORUS                   2X
INTERLUDE w/ CHORUS crd. 2X
BRIDGE                   1x
CHORUS                   2X
OUTRO     w/ CHORUS crd. 1x
Comments