Offspring - Can't Repeat Chords & Tabs

 

Can't Repeat Chords & Tabs

Offspring Chords & Tabs

Version: 3 Type: Tab 3 ratings
1 star 2 stars 3 stars 4 stars 5 stars
comments

Can't Repeat Tab

Part with the effect
e-------------------------------------------------------|
B-------------------------------------------------------|
G-------------------------------------------------------|
D----77-7-----------------------------------------------|
A----77-7-(x16)-----------------------------------------| 
E----55-5-----------------------------------------------|
     **          


Pre-verse riff

This part is played twice one after the other        (played a few times during the song)
e-------------------------------------------------------|
B----10--8-8-------------10--8-8------------------------|
G------------9-9-7-7-9-----------9-9-7-7-9--------------|
D-------------------------------------------------------|
A-------------------------------------------------------| 
E-------------------------------------------------------|


e-------------------------------------------------------|
B---13-12-10----10------13-12-10----10----(10)----------|
G------------12------------------12----12---------------|
D-------------------------------------------------------|
A-------------------------------------------------------| 
E-------------------------------------------------------|
(Number in brackets played only on the second time)

Verse

Verse played twice.
e-------------------------------------------------------|
B-------------------------------------------------------|
G----------------55-5-----------------------------------| 
D----77-7--------55-5-(x4)---33-3--------55-5-----------|
A----77-7-(x4)---33-3--------33-3-(x4)---55-5-(x4)------| 
E----55-5--------------------11-1--------33-3-----------|
     **          **          **          **




Chorus
[ Tab from: http://www.guitartabs.cc/tabs/o/offspring/cant_repeat_tab_ver_3.html ]
Played twice through each chorus.
e-------------------------------------------------------|
B-------------------------------------------------------|
G--------------------55555-55-5555----------------------|
D----77777-77-7777---55555-55-5555--33333-33-3333-------|
A----77777-77-7777---33333-33-3333--33333-33-3333-------| 
E----55555-55-5555------------------11111-11-1111-------|


e-------------------------------------------------------|
B-------------------------------------------------------|
G-------------------------------------------------------|
D----55555-55-5555--------------------------------------|
A----55555-55-5555--------------------------------------| 
E----33333-33-3333--------------------------------------|


Bridge

e-------------------------------------------------------|
B-------------------------------------------------------|
G-------------------------------------------------------|
D---77-7------------------------------------------------|
A---77-7-(x16)------------------------------------------| 
E---55-5------------------------------------------------|
    **
(Played just before the bass starts)


This part is played right after the calm bass part.
e-------------------------------------------------------|
B-------------------------------------------------------|
G--------55-----------------5---------------------------|
D---77---55---33-3-3-3-5----5--5------------------------|
A---77---33---33-3-3-3-5----3--5------------------------| 
E---55--------11-1-1-1-3-------3------------------------|
(Chorus plays immediately after the last note of this part)



Outro

e-------------------------------------------------------|
B-----------8-10--13-12----13-12-10----10---------------|
G-------7-9-------------------------12------------------|
D--7-10-------------------------------------------------|
A-------------------------------------------------------| 
E-------------------------------------------------------|


e-------------------------------------------------------|
B-------------------------------------------------------|
G-------------------------------------------------------|
D---77-7------------------------------------------------|
A---77-7-(x8)-------------------------------------------| 
E---55-5------------------------------------------------|

Comments