Offspring - Can't Repeat Chords & Tabs

 

Can't Repeat Chords & Tabs

Offspring Chords & Tabs

Version: 2 Type: Tab 1 rating
1 star 2 stars 3 stars 4 stars 5 stars
comments

Can't Repeat Tab

   
#----------------------------------PLEASE NOTE---------------------------------#
#This file is the author's own work and represents their interpretation of the #
#song. You may only use this file for private study, scholarship, or research. #
#------------------------------------------------------------------------------##

Can't Repeat
Artist: The Offspring
Album: Greatest Hits
Tab By: atawb 
Tuning:(E A D G B E) 

p/=slide and scratch with pick       
x= Mute
[ Tab from: http://www.guitartabs.cc/tabs/o/offspring/cant_repeat_tab_ver_2.html ]
Verse                         Riff1                       Riff2
e|--5-3-3------------5-3-3------------|--8-7-5-3-5--8-7-5-3-5-3--|
B|--------5-5-3-3-5--------5-5-3-3-5--|--------------------------|
G|------------------------------------|--------------------------|
D|------------------------------------|--------------------------|x2
A|------------------------------------|--------------------------|
E|------------------------------------|--------------------------|
                                                                                              Riff3
e|-------------------------------------------------------------------------------------------------|
B|-------------------------------------------------------------------------------------------------|
G|-------------------------x-x-5-x-x-5-x-x-5-x-x-5-------------------------------------------------|
D|-x-x-7-x-x-7-x-x-7-x-x-7-x-x-5-x-x-5-x-x-5-x-x-5-x-x-3-x-x-3-x-x-3-x-x-3-x-x-5-x-x-5-x-x-5-x-x-5-|x2
A|-x-x-7-x-x-7-x-x-7-x-x-7-x-x-3-x-x-3-x-x-3-x-x-3-x-x-3-x-x-3-x-x-3-x-x-3-x-x-5-x-x-5-x-x-5-x-x-5-|
E|-x-x-5-x-x-5-x-x-5-x-x-5-------------------------x-x-1-x-x-1-x-x-1-x-x-1-x-x-3-x-x-3-x-x-3-x-x-3-|

Chorus
e|----------------------------------------------------------------------|
B|----------------------------------------------------------------------|
G|-------------------5-5-5-5-5-5-5-5------------------------------------|
D|--7-7-7-7-7-7-7-7--5-5-5-5-5-5-5-5--3-3-3-3-3-3-3-3--5-5-5-5-5-5-5-5--|
A|--7-7-7-7-7-7-7-7--3-3-3-3-3-3-3-3--3-3-3-3-3-3-3-3--5-5-5-5-5-5-5-5--|
E|--5-5-5-5-5-5-5-5-------------------1-1-1-1-1-1-1-1--3-3-3-3-3-3-3-3--|

Interlude
e|---------------------------|
B|---------------------------|
G|----------5-5---------5----|
D|-----7-7--5-5--3-3--5-5-5--|
A|-----7-7--3-3--3-3--5-3-5--|
E|-p/--5-5-------1-1--3---3--|

Outro
e|---------------8-7-8-7-5-3-5-------------------------------------------|
B|-----------------------------------------------------------------------|
G|-----------------------------------------------------------------------|
D|----------2-5-----------------x-x-7-x-x-7-x-x-7-x-x-7-x-x-7-x-x-7-7----|
A|--0~-2~-3-5---------------------x-x-7-x-x-7-x-x-7-x-x-7-x-x-7-x-x-7-7--|
E|------------------------------x-x-5-x-x-5-x-x-5-x-x-5-x-x-5-x-x-5-5----|

Verse 
Chorus x2 
Verse 
Chorus x2 
Verse(Riff 3x1)
Interlude
Chorus x2
Outro
Comments