Offspring - Cant Get My Head Around You Chords & Tabs

 

Cant Get My Head Around You Chords & Tabs

Offspring Chords & Tabs

Version: 5 Type: Tab 0 ratings
1 star 2 stars 3 stars 4 stars 5 stars
comments

Cant Get My Head Around You Tab

   
The Offspring - (Can't Get My) Head Around You
Album - Splinter
Tabbed By - Garry Foster (gazfoster@hotmail.com)

| /  slide up
| \  slide down
| h  hammer-on
| p  pull-off
| ~  vibrato
| +  harmonic
| x  Mute note
|PM  Palm Mute 

Intro - Clean

E||--------------------------||
B||--9--9--9--9--9--9--9--9--||
G||--9--9--9--9--9--9--9--9--||
D||--9--9--9--9--9--9--9--9--||
A||--7--7--7--7--7--7--7--7--||
E||--0--0--0--0--0--0--0--0--||


Verse 1 - Clean

E||--------------------------|--------------------------||
B||--------------------------|--------------------------||
G||--------------------------|--------------------------||X3
D||-----------------------4--|--7--7--7-----------------||
A||--2--2--2--4--5--5--5--2--|--5--5--5--5--7--7--7-----||
E||--0--0--0--2--3--3--3-----|-----------3--5--5--5--0--||
P.M. .  .  .  .  .  .  .  .     .  .  .  .  .  .  .

 ||--------------------------|-----------------------||
 ||--------------------------|-----------------------||
 ||--------------------------|-----------------------||
 ||-----------------------4--|--7--7--7--------------||
 ||--2--2--2--4--5--5--5--2--|--5--5--5--5--7\-------||
 ||--0--0--0--2--3--3--3-----|-----------3--5\-------||
P.M. .  .  .  .  .  .  .  .     .  .  .  .

Verse 2 - Distortion

E||------------------------|----------------------||
B||------------------------|----------------------||
G||---------------------4--|--7----x--------------||
D||--2----x--4--5----5--4--|--7----x--5--7--------|| X4
A||--2----x--4--5----5--2--|--5----x--5--7--------||
E||--0----x--2--3----3-----|----------3--5--------||


Pre Chorus - Distortion

E||--------------------------|--------------------------|
B||--------------------------|--------------------------|
G||--5--5--5--5--5--5--5--5--|--5--5--5--5--5--5--5--5--|
D||--5--5--5--5--5--5--5--5--|--5--5--5--5--5--5--5--5--|
A||--3--3--3--3--3--3--3--3--|--3--3--3--3--3--3--3--3--|
E||--------------------------|--------------------------|


--------x--x--------x--x--|--------x--x-----x--x--x--|
--------x--x--------x--x--|--------x--x-----x--x--x--|
--------x--x--------x--x--|--------x--x-----x--x--x--|
--2--2--x--x--2--2--x--x--|--2--2--x--x--2--x--x--x--|
--2--2--x--x--2--2--x--x--|--2--2--x--x--2--x--x--x--|
--0--0--x--x--0--0--x--x--|--0--0--x--x--0--x--x--x--|


                                                      
--------------------------|--------------------------|
--------------------------|--------------------------|
--5--5--5--5--5--5--5--5--|--5--5--5--5--5--5--5--5--|
--5--5--5--5--5--5--5--5--|--5--5--5--5--5--5--5--5--|
--3--3--3--3--3--3--3--3--|--3--3--3--3--3--3--3--3--|
--------------------------|--------------------------|

[ Tab from: http://www.guitartabs.cc/tabs/o/offspring/cant_get_my_head_around_you_tab_ver_5.html ]
                                                       
--------------------------|--------------------------||
--------------------------|--------------------------||
--7--7--7--7--7--7--7--7--|--4--4--4--4--4--4--4--4--||
--7--7--7--7--7--7--7--7--|--4--4--4--4--4--4--4--4--||
--5--5--5--5--5--5--5--5--|--2--2--2--2--2--2--2--2--||
--------------------------|--------------------------||


Solo (Lead) - Distortion and Wah

E||--------------------------------------------------|
B||--------------------------------------------------|
G||--12-12-12-12-12-12-12-12-12-12-12-12-12-12-12-12-|
D||--x--x--x--x--x--x--x--x--x--x--x--x--x--x--x--x--|
A||--10-10-10-10-10-10-10-10-10-10-10-10-10-10-10-10-|
E||--------------------------------------------------|


                              
----------------------------||
----------------------------||
--19----19--0--14----14--0--||
--x-----x---0--x-----x---0--|| X2
--17----17--0--12----12--0--||
----------------------------||


||----------------------|----------------------||
||----------------------|----------------------||
||--9----9----9----9----|--9----9----9----9----||
||--x----x----x----x----|--x----x----x----x----||
||--7----7----7----7----|--7----7----7----7----||
||----------------------|----------------------||


Solo (backing) - Distortion

E||------------------------|----------------------||
B||------------------------|----------------------||
G||---------------------4--|--7----x--------------|| X3
D||--2----x--4--5----5--4--|--7----x--5--7--------||
A||--2----x--4--5----5--2--|--5----x--5--7--------||
E||--0----x--2--3----3-----|----------3--5--------||


E||--------------------------|--------------------------||
B||--------------------------|--------------------------||
G||--------------------------|--------------------------||
D||--2--2--2--2--2--2--2--2--|--2--2--2--2--2--2--2--2--||
A||--2--2--2--2--2--2--2--2--|--2--2--2--2--2--2--2--2--||
E||--0--0--0--0--0--0--0--0--|--0--0--0--0--0--0--0--0--||


Bridge - Clean

E||--------------------------|--------------------------||
B||--------------------------|--------------------------||
G||--------------------------|--------------------------||X3
D||-----------------------4--|--7--7--7-----------------||
A||--2--2--2--4--5--5--5--2--|--5--5--5--5--7--7--7-----||
E||--0--0--0--2--3--3--3-----|-----------3--5--5--5--0--||
P.M. .  .  .  .  .  .  .  .     .  .  .  .  .  .  .


E||---------------||
B||---------------||
G||---------------||
D||--2-Feedback---||
A||--2------------||
E||--0------------||


Ending -

E||---------------||
B||---------------||
G||---------------|| Guitar 1
D||-2-------------||
A||-2-------------||
E||-0-------------||

E||---------------||
B||---------------||
G||-9-------------||
D||-x-------------||Guitar 2
A||-7-------------||
E||---------------||



ORDER:

Intro
Verse 1
Verse 2
Pre Chorus
Chorus (verse 2 with different lyrics)
Solo with backing
Pre Chorus
Bridge
Chorus (different lyrics again)
Chorus with Solo in background
Ending

gazfoster@hotmail.com
Comments