Offspring - Cant Get My Head Around You Chords & Tabs

 

Cant Get My Head Around You Chords & Tabs

Offspring Chords & Tabs

Version: 4 Type: Tab 0 ratings
1 star 2 stars 3 stars 4 stars 5 stars
comments

Cant Get My Head Around You Tab

The Offspring - Can't Get My Head Around You
Tabbed by couchPUNKtato
e-mail: couchpunk@web.de
_________________

s - scratch down on your fretboard

[intro1]
e----------------------------------------------------
B----------------------------------------------------
G-----9-9-9-9-9-9-9-9--------------------------------
D-----9-9-9-9-9-9-9-9--------------------------------
A-----7-7-7-7-7-7-7-7--------------------------------
E----------------------------------------------------

[ Tab from: http://www.guitartabs.cc/tabs/o/offspring/cant_get_my_head_around_you_tab_ver_4.html ]
[intro2 & main riff]
e----------------------------------------------------
B----------------------------------------------------
G-----------------57-7-------------------------------
D------2-2--45-5--57-7--57-7-------------------------
A------2-2--45-5--35-5--57-7-------------------------
E------0-0--23-3--------35-5-------------------------
	repeat as necessary


[chorus]
e----------------------------------------------------
B----------------------------------------------------
G--5-5-5-5-5-5-5-5-----------------------------------
D--5-5-5-5-5-5-5-5-----2-2-s--2-2-s--2-2-s--2-2-s----
A--3-3-3-3-3-3-3-3-----2-2-s--2-2-s--2-2-s--2-2-s----
E----------------------0-0-s--0-0-s--0-0-s--0-0-s----
  all your faking        yeah   yeah   yeah   yeah


e----------------------------------------------------
B----------------------------------------------------
G--5-5-5-5-5-5-5-5---------7-7-7-7-7-4-4-4-4-4-------
D--5-5-5-5-5-5-5-5---------7-7-7-7-7-4-4-4-4-4-------
A--3-3-3-3-3-3-3-3---------5-5-5-5-5-2-2-2-2-2-------
E----------------------------------------------------
  shows you're aching      yeah yeah yeah yeah


Have Fun!!!
Comments