Offspring - Cant Get My Head Around You Chords & Tabs

 

Cant Get My Head Around You Chords & Tabs

Offspring Chords & Tabs

Version: 2 Type: Tab 0 ratings
1 star 2 stars 3 stars 4 stars 5 stars
comments

Cant Get My Head Around You Tab

(Can't Get My) Head Around You - Splinter 2003

Standard Tuning

144 bpm

Start On (clean)

|-7-7-7-7-7-7-7-7-|
|-7-7-7-7-7-7-7-7-|
|-9-9-9-9-9-9-9-9-|
|-9-9-9-9-9-9-9-9-|
|-7-7-7-7-7-7-7-7-|
|-0-0-0-0-0-0-0-0-|

Intro x3 (clean)

  PM-------------------------------|
|-----------------|-----------------|
|-----------------|-----------------|
|-----------------|-7-7-7-----------|
|-2-2-2-4-5-5-5---|-7-7-7---7-7-7---|
|-2-2-2-4-5-5-5-0-|-5-5-5---7-7-7---|
|-0-0-0-2-3-3-3---|-------0-5-5-5-0-|

Then x1

  PM-------------------------|
|-----------------|--------------|
|-----------------|--------------|
|-----------------|-7-7-7--------|
|-2-2-2-4-5-5-5---|-7-7-7---7----|
|-2-2-2-4-5-5-5-0-|-5-5-5---7----|
|-0-0-0-2-3-3-3---|-------0-5----|

Verse (distortion) (Brackets mean hold note)
 
|-------------------|-----------------|-------------------|-----------------|
|-------------------|-----------------|-------------------|-----------------|
|-------------------|-7-7-7-----------|-------------------|-7-7-7-----------|
|-2-2-2-4-5-(5)-5-x-|-7-7-7---7-7-7---|-2-2-2-4-5-(5)-5-x-|-7-7-7---7-7-7---|
|-2-2-2-4-5-(5)-5-x-|-5-5-5-0-7-7-7-0-|-2-2-2-4-5-(5)-5-x-|-5-5-5---7-7-7---|
|-0-0-0-2-3-(3)-3-x-|-------0-5-5-5-0-|-0-0-0-2-3-(3)-3-x-|-------0-5-5-5-0-|

Chorus (distortion)
[ Tab from: http://www.guitartabs.cc/tabs/o/offspring/cant_get_my_head_around_you_tab_ver_2.html ]
|-----------------|-----------------|----------------|----------------|
|-----------------|-----------------|----------------|----------------|
|-5-5-5-5-5-5-5-5-|-5-5-5-5-5-5-5-5-|-----2-------2--|-----2------2---|
|-5-5-5-5-5-5-5-5-|-5-5-5-5-5-5-5-5-|-2-2-2---2-2-2--|-2-2-2--2-2-2---|
|-3-3-3-3-3-3-3-3-|-3-3-3-3-3-3-3-3-|-2-2-2---2-2-2--|-2-2-2--2-2-2---|
|-----------------|-----------------|-0-0-0---0-0-0--|-0-0-0--0-0-0---|


|-----------------|-----------------|----------------|----------------|
|-----------------|-----------------|----------------|----------------|
|-5-5-5-5-5-5-5-5-|-5-5-5-5-5-5-5-5-|-7-7-7-7-7-7-7S=|=4-4-4-4-4-4-4--|
|-5-5-5-5-5-5-5-5-|-5-5-5-5-5-5-5-5-|-7-7-7-7-7-7-7S=|=4-4-4-4-4-4-4--|
|-3-3-3-3-3-3-3-3-|-3-3-3-3-3-3-3-3-|-5-5-5-5-5-5-5S=|=2-2-2-2-2-2-2--|
|-----------------|-----------------|----------------|----------------|

Solo Thingy (Distortion and Wah wah) x3

|-------------------------------------------------|---------------|
|-------------------------------------------------|---------------|
|-------------------------------------------------|---------------|
|-------------------------------------------------|-12--12S=7--7--|
|-10-10-10-10-10-10-10-10-10-10-10-10-10-10-10-10-|---------------|
|-------------------------------------------------|---------------|

Then

|-----------------|
|-----------------|
|-9-9-9-9-9-9-9-9-|
|-9-9-9-9-9-9-9-9-|
|-7-7-7-7-7-7-7-7-|
|-----------------|

The above solo thingy is played over the verse riff at the end and the song
finishes on the E chords above.
That's everything the order is pretty simple to figure out.
Comments