Offspring - Cant Get My Head Around You Chords & Tabs

 

Cant Get My Head Around You Chords & Tabs

Offspring Chords & Tabs

Version: 1 Type: Bass Tab 0 ratings
1 star 2 stars 3 stars 4 stars 5 stars
comments

Cant Get My Head Around You Bass Tab

musica: (Can't Get My) Head around You
Banda: the offsping
tabber: PunkSnotDeaD_ (punksnotdead_@hotmail.com)
* s=slide

Introdušao soh na guitarra limpa
[ Tab from: http://www.guitartabs.cc/tabs/o/offspring/cant_get_my_head_around_you_btab.html ]
Verso x4 qdo comeša a guitarra cum distorcaum o baixo entra junto (somewhere in the night...)
G-------------------------------------------------------------------|
D-------------------------------------------------------------------|
A------------2-5-5--------------------------------------------------|
E--0-0-2-3-3-------3-5-5--------------------------------------------|
 
refrao  (all you faking...)
G-------------------------------------------------------------------|
D-------------------------------------------------------------------|
A--3-3-3-3-3-3-3-3-3-3-3-3-3-3-3-3------1s7-----1s7-----1s7-----1s7-|
E-----------------------------------0-0-----0-0-----0-0-----0-0-----|
 
G-------------------------------------------------------------------|
D-------------------------------------------------------------------|
A--3-3-3-3-3-3-3-3-3-3-3-3-3-3-3-3-5-5-5-5-5-5-5-5-2-2-2-2-2-2-2-2--|
E-------------------------------------------------------------------|
 
durante o solo cum wah wah o baixo tokah o verso

outro: dpox do wah wah da guitarra
G--------------------------|
D--------------------------|
A--7-7--7-7---7-7--7-7-----|
E--------------------------|
 
eh isso!! =:P
Comments