Offspring - Burn It Up Chords & Tabs

 

Burn It Up Chords & Tabs

Offspring Chords & Tabs

Version: 1 Type: Bass Tab 0 ratings
1 star 2 stars 3 stars 4 stars 5 stars
comments

Burn It Up Bass Tab

   
Bass TAB for Burn it Up by the Offspring
from Igniton
Submitted and tabbed by Dave Lake (SidVicious_98@yahoo.com)


Intro                          2X
G--------------------------------
D--------------------------------
A--------------------------------
E-0-0-0-0-r-r-r-r-0-0-0-0-r-r-r-r

G---------
D---------
A-0-0-0-0-
E---------

Verse               2x
G--------------------- ----------------------
D--------------------- -7-7-8-7-7------------
A-7-7-8-7-7----------- ----------7*-7*-7*-7*-
E----------7*-7*-7*-7* ----------------------
[ Tab from: http://www.guitartabs.cc/tabs/o/offspring/burn_it_up_btab.html ]
G----------------------
D----------------------
A-7-7-8-7-7------------          * sixteenth nts.
E----------7*-7*-7*-7*-

Pre Chorus
G----------------------------------
D----------------------------------
A-7-7-5-5-5-7-7-7-5-5-5-7-7-7-5-5-7
E----------------------------------

Chorus          4X
G-----------------
D-7-7-------------
A----5-5-7-7-7-7-7
E-----------------

Verse (without 16ths first couple of times)

Chorus

Bridge
G---------------------------------
D---------------------------------
A-7-7-5-5-5-0-0-7-7-10-10-10-12-12
E---------------------------------

Repeat until pre chorus


Questions, Comments, Corrections, any of that crap 
e-mail me at: SidVicious_98@yahoo.com
Comments