Offspring - Beheaded Chords & Tabs

 

Beheaded Chords & Tabs

Offspring Chords & Tabs

Version: 1 Type: Bass Tab 0 ratings
1 star 2 stars 3 stars 4 stars 5 stars
comments

Beheaded Bass Tab

Taken from www.mattsmusicpage.com

Intro (listen the timing carefully)

G:-----------------------------------------------------|
D:-----------------------------------------------------|
A:--5/17-----------------------------------------------|
E:-----------------------------------------------------|

Verse

G:-----------------------------------------------------|
D:-----------------------------------------------------|
A:-5-5-3-3-6-6-5-5-5-5-5-5-3-3-6-6-5-5-5-5-------------|
E:-----------------------------------------------------|

G:-----------------------------------------------------|
D:-----------------------------------------------------|
A:-----------------------------------------------------|
E:-3-3-3-3-6-6-6-6-6-5-5-5-5-5-5-5-5-------------------|

G:-----------------------------------------------------|
D:-----------------------------------------------------|
A:-5-5-3-3-6-6-5-5-5-5-5-5-3-3-6-6-5-5-5-5-------------|
E:-----------------------------------------------------|

G:-----------------------------------------------------|
D:-----------------------------------------------------|
A:-----------------------------------------------------|
E:-3-3-3-3-6-6-6-6-6-5-5-5-5-5-5-5-5-------------------|

Chorus

G:-----------------------------------------------------|
D:-5-5-5-5-5--3-3-3-3-3-3------------------------------|
A:------------------------5-5-5-6-5-5-5-5-5------------|
E:-----------------------------------------------------|

G:-----------------------------------------------------|
D:-5-5-5-5-5--3-3-3-3-3-3------------------------------|
A:-------------------------5-let-ring------------------|
E:-----------------------------------------------------|

"Bridge"

G:-----------------------------------------------------|
D:-----------------------------------------------------|
A:-5-5-5-5-5-5-5-5/17-17-17-17-17-17-17-17-17-17-17----|
E:-----------------------------------------------------|

Verse again

G:-----------------------------------------------------|
D:-----------------------------------------------------|
A:-5-5-3-3-6-6-5-5-5-5-5-5-3-3-6-6-5-5-5-5-------------|
E:-----------------------------------------------------|

G:-----------------------------------------------------|
D:-----------------------------------------------------|
A:-----------------------------------------------------|
E:-3-3-3-3-6-6-6-6-6-5-5-5-5-5-5-5-5-------------------|

G:-----------------------------------------------------|
D:-----------------------------------------------------|
A:-5-5-3-3-6-6-5-5-5-5-5-5-3-3-6-6-5-5-5-5-------------|
E:-----------------------------------------------------|

G:-----------------------------------------------------|
D:-----------------------------------------------------|
A:-----------------------------------------------------|
E:-3-3-3-3-6-6-6-6-6-5-5-5-5-5-5-5-5-------------------|

Then chorus again

G:-----------------------------------------------------|
D:-5-5-5-5-5--3-3-3-3-3-3------------------------------|
A:------------------------5-5-5-6-5-5-5-5-5------------|
E:-----------------------------------------------------|

Listen octave timing (when welty hit his drums)
[ Tab from: http://www.guitartabs.cc/tabs/o/offspring/beheaded_btab.html ]
G:----------------------------7-7-7--------------------|
D:-5-5-5-5-5--3-3-3-3-3-3------------------------------|
A:------------------------5----------------------------|
E:-----------------------------------------------------|

G:-----------------------------------------------------|
D:-5-5-5-5-5--3-3-3-3-3-3------------------------------|
A:------------------------5-5-5-6-5-5-5-5-5------------|
E:-----------------------------------------------------|

G:------------------------b----------------------------|
D:-5-5-5-5-5--3-3-3-3-3-3-r----------------------------|
A:------------------------e----------------------------|
E:------------------------a----------------------------|
                          k

When drums come you start playing too

G:-----------------------------------------------------|
D:-----------------------------------------------------|
A:-5-8-8-7-7-6-6-6-5-5-8-8-7-7-6-6-6-------------------|
E:-----------------------------------------------------|

 
"Off with your head" part (Grek plays only the D note)

G:-----------------------------------------------------|
D:-----------------------------------------------------|
A:-5--------------5---------------5--------------5-----|
E:-----------------------------------------------------|

"Bridge #2"

G:-----------------------------------------------------|
D:-----------------------------------------------------|
A:-5-5-5-5-5-5-5-5/17-17-17-17-17-17-17-17-17-17-17----|
E:-----------------------------------------------------|

Verse

G:-----------------------------------------------------|
D:-----------------------------------------------------|
A:-5-5-3-3-6-6-5-5-5-5-5-5-3-3-6-6-5-5-5-5-------------|
E:-----------------------------------------------------|

G:-----------------------------------------------------|
D:-----------------------------------------------------|
A:-----------------------------------------------------|
E:-3-3-3-3-6-6-6-6-6-5-5-5-5-5-5-5-5-------------------|

G:-----------------------------------------------------|
D:-----------------------------------------------------|
A:-5-5-3-3-6-6-5-5-5-5-5-5-3-3-6-6-5-5-5-5-------------|
E:-----------------------------------------------------|

G:-----------------------------------------------------|
D:-----------------------------------------------------|
A:-----------------------------------------------------|
E:-3-3-3-3-6-6-6-6-6-5-5-5-5-5-5-5-5-------------------|

Last Chorus

G:-----------------------------------------------------|
D:-5-5-5-5-5--3-3-3-3-3-3------------------------------|
A:------------------------5-5-5-6-5-5-5-5-5------------|
E:-----------------------------------------------------|

Listen octave timing (when welty hit his drums)

G:----------------------------7-7-7--------------------|
D:-5-5-5-5-5--3-3-3-3-3-3------------------------------|
A:------------------------5----------------------------|
E:-----------------------------------------------------|

G:-----------------------------------------------------|
D:-5-5-5-5-5--3-3-3-3-3-3------------------------------|
A:------------------------5-5-5-6-5-5-5-5-5------------|
E:-----------------------------------------------------|

G:-----------------------------------------------------|
D:-5-5-5-5-5--3-3-3-3-3-3------------------------------|
A:------------------------5-5-5-6-5-5-5-5-5------------|
E:-----------------------------------------------------|

That's it. Play it with a pick and big feeling.

Night brings bad dreams...

Comments