Offspring - Bad Habit Chords & Tabs

 

Bad Habit Chords & Tabs

Offspring Chords & Tabs

Version: 3 Type: Bass Tab 2 ratings
1 star 2 stars 3 stars 4 stars 5 stars
comments

Bad Habit Bass Tab

#----------------------------------PLEASE NOTE---------------------------------#
#This file is the author's own work and represents their interpretation of the #
#song. You may only use this file for private study, scholarship, or research. #
#------------------------------------------------------------------------------#

Song:Bad Habit
Artist:The Offspring
Tabbed by:Ronny Ø
[ Tab from: http://www.guitartabs.cc/tabs/o/offspring/bad_habit_btab_ver_3.html ]
:   intro play this 6x
G:---------------------------|
D:---------7-----------------|
A:----0----------------------|
E:-3------------3h5-5--------|
:
:   then play this once
G:---------------------------|
D:-------5----------2--------|
A:---------------------------|
E:-1-3----------0------------|
:
:   Then play this 2x
G:--------------------------------------------|
D:--------------------------------------------|
A:-0--0--0-0--0--0--0-0--0--0-0--0--0--0-0----|
E:--------------------------------------------|
:   
:   Then the "hard" one 
G:-----------------------------------------------------|
D:-----------------------------------------------------|
A:-0-3-5-3-0---0-3-0-0--0-0-0--0-0-0-0--0-0-0-0-0-0----|
E:-----------3-----------------------------------------|
:
G:------------------------|
D:------------------------|
A:-0-3-5-3-0---0-3-0-0----|
E:-----------3------------|
:   
:   "I open the glovebox" part goes like this
G:-----------------------------------------------------|
D:-----------------------------------------------------|
A:-----------------------------------------------------|
E:-3-3-3-3-3-3-3-3-3-3-3-3-3-3-3-0-0-0-0-0-0-0-0-0-0---|
:   
:   
:   Chorus goes this way
G:-------------------------------------|
D:-------------------------------------|
A:-0-0-7-8-8-8-3-5-5-5-5-5-7-7-7-7-----|
E:-------------------------------------|
:
:    After chorus part:
G:----------------------------------|
D:----------------------------------|
A:-0-0-0--8-8-8-8-5-5-5-7-7-7-7-----|
E:----------------------------------|
:
:    After "goddam mother f*****" 4x
G:-------------------------------|
D:-------------------------------|
A:------------------7-6-5--3-0---|
E:-5-5-5-4-3-3-3-3---------------|
Comments