Offspring - Bad Habit Chords & Tabs

 

Bad Habit Chords & Tabs

Offspring Chords & Tabs

Version: 2 Type: Bass Tab 1 rating
1 star 2 stars 3 stars 4 stars 5 stars
comments

Bad Habit Bass Tab

#----------------------------------PLEASE NOTE---------------------------------#
#This file is the author's own work and represents their interpretation of the #
#song. You may only use this file for private study, scholarship, or research. #
#------------------------------------------------------------------------------#

Song: Bad Habit
Artist: The Offspring
Album: Smash (1994)
Tabbed by: FunkOnCrack 
Email: what_is_86@hotmail.com

The last guy/girl that tabbed this was a little off on
the verse, didnt have the pre chorus and the Bridge/Solo was off.
This should be 99.9% correct.

The Offspring - Bad Habit
[ Tab from: http://www.guitartabs.cc/tabs/o/offspring/bad_habit_btab_ver_2.html ]
Intro    x6
G|--------2----------|--------0-----------|
D|-------------------|----------------2---|
A|----0--------------|--------------------|
E|-3-----------3h5-5-|-0--3--------0------|

Verse   x2
G|--------------------------|
D|--------------------------|
A|-0--3-5--3-----0--3--0----|
E|-----------5-3------------|

Pre Chorus
G|-------------------------------------------------------------------|
D|-------------------------------------------------------------------|
A|-------------------------------------------------------------------|
E|-3-3-3-3-3-3-3-3-3-3-3-3-3-3-3-3---0-0-0-0-0-0-0-0-0-0-0-0-0-0-0-0-|

Chorus
G|---------------------------|
D|-----2-3-------------------|
A|-0-0-----3--5--5-5-5-5/7-7-|Repeated
E|---------------------------|

Bridge/solo
G|-----------------------|
D|-7-7--6-5-5------------|
A|------------7-6-5------|Repeated
E|------------------8-5--|
Comments