Offspring - Autonomy Chords & Tabs

 

Autonomy Chords & Tabs

Offspring Chords & Tabs

Version: 1 Type: Tab 0 ratings
1 star 2 stars 3 stars 4 stars 5 stars
comments

Autonomy Tab

AUTONOMY by THE OFFSPRING from the single WANT YOU BAD (2001)
This Song was originally made 1978 by the BUZZCOCKS. 
THE OFFSPRING played this one 2000 but they published it 2001.
A simple song with a great sound!

=Intro 1= X4
|-------------------------------------------------------------------------------------|
|-------------------------------------------------------------------------------------|
|-------------------------------------------------------------------------------------|
|-4-4----4-4-4-4-4---------------------------------------------------------------|
|-4-4----4-4-4-4-4---------------------------------------------------------------|
|-0-2----2-2-2-2-2---------------------------------------------------------------|

=Intro 2= X4
|-------------------------------------------------------------------------------------|
|-------------------------------------------------------------------------------------|
|-------------------------------------------------------------------------------------|
|-4-4----4-4--4-4--4-4----------------------------------------------------------|
|-4-4----4-4--4-4--4-4----------------------------------------------------------|
|-0-2----0-2--0-2--0-2----------------------------------------------------------|

=Post Intro= X2 /  / Brackets just 1st time
|-----------------------------------------------------------------------------------|
|-----------------------------------------------------------------------------------|
|----------11-11-9-9-7-7-6-6-4-4-4----------------------------------------|
|-(4-4)--11-11-9-9-7-7-6-6-2-2-4--4--4---------------------------------|
|-(4-4)---9---9--7-7-5-5-4-4-2-2-0--4--4--------------------------------|
|-(0-2)--------------------------------------2--2--------------------------------|

=Verse= X2
|------------------------------------------------------------------------------------|
|------------------------------------------------------------------------------------|
|------------------4-4--6----------------------------------------------------------|
|--4--4--4-4----4-4--6----------------------------------------------------------|
|--4--4--4-4----2-2--4----------------------------------------------------------|
|--2--2--0-2----------------------------------------------------------------------|
[ Tab from: http://www.guitartabs.cc/tabs/o/offspring/autonomy_tab.html ]
=Main Riff= X2
|----------------------------------------------------------------------------------|
|----------------------------------------------------------------------------------|
|-11-11-9-9-7-7-6-6-4-4-4------------------------------------------------|
|-11-11-9-9-7-7-6-4-2-2-4--4--4----------------------------------------|
|---9--9--7-7-5-5-4-4-2-2-0--4--4---------------------------------------|
|-------------------------------------2--2---------------------------------------|

=Pre-Chorus= X1
|------------------------------------------------------------------------------------|
|------------------------------------------------------------------------------------|
|------------------------------------------------------------------------------------|
|--4--4--4-4----4-4-4-4--------------------------------------------------------|
|--4--4--4-4----4-4-4-4--------------------------------------------------------|
|--2--2--0-2----2-2-0-2--------------------------------------------------------|

=Chorus= X1
|----------------------------------------------------------------------------------------------------------------------------------------------| 
|----------------------------------------------------------------------------------------------------------------------------------------------| 
|----------------------------------------------------------------------------------------------------------------------------------------------| 
|----------------------------------------------------------------------------------------------------------------------------------------------| 
|---------5-----------------5----------------7-----------------7---------------9------------------9--------------9------------------9----| 
|3--3-3---3----3-3-3-3---3----5--5-5---5----5-5-5-5---5----7--7-7---7----7-7-7-7---7----7--7-7---7----7-7-7-7---7--| 

Then play
=Main Riff= X2
=Verse= X2
=Main Riff= X2
=Pre-Chorus= X1
=Chorus= X2
=Chorus= X2 / instead the Solo (I haven´t got it)

=End= X1 / Become slower when you end / # = let ring
|-----------------------------------------------------------------------------------------------------------------------| 
|-----------------------------------------------------------------------------------------------------------------------| 
|-----------------------------------------------------------------------------------------------------------------------| 
|-------------------------------------------------------------------------------------------------------------9#-------| 
|---------5-----------------5----------------7-----------------7---------------9------------------9------9#-------| 
|3--3-3---3----3-3-3-3---3----5--5-5---5----5-5-5-5---5----7--7-7---7----7-7-7-7---7----7#-------| 

Don´t expect too much from me - I´m just 14 years old.
Send your comments about this Tab to "ali.germany2000@freenet.de"

Tabbed by: Ali_A (11th April 2001)
Thanks to: Scott Hanson (He tabbed the original Version)
Comments