Offspring - Amazed Chords & Tabs

 

Amazed Chords & Tabs

Offspring Chords & Tabs

Version: 3 Type: Tab 0 ratings
1 star 2 stars 3 stars 4 stars 5 stars
comments

Amazed Tab

|---------------------------------------------------------------------------|
|------------------------------- OFFSPRING ---------------------------------|
|---------------------------------------------------------------------------|

song: Amazed
band: offspring
album: ixnay on the hombree, columbia records 1997


e|----------------------------|
B|----------------------------|
G|---------------777-7-5555-5-|
D|--777-7-5555-5-777-7-5555-5-| 4 times
A|--777-7-5555-5-555-5-3333-3-|
E|--555-5-3333-3--------------|


the 3 and 4 time you play then you can play this times

e|----------------------------11---------|
B|-11-13-14-11-13-14-11-13-14----14-13-9-|
G|---------------------------------------|
D|---------------------------------------|
A|---------------------------------------|
E|---------------------------------------|

in the verse it's just bass and drums!!!

bridge

  "=" =let ring as long as possible

e|---------------------------------------|
B|---------------------------------------|
G|---------------------------------------|
D|---------------------------12----------| 2 times
A|--12================-14-15----15-14-10-|
E|---------------------------------------|
[ Tab from: http://www.guitartabs.cc/tabs/o/offspring/amazed_tab_ver_3.html ]
Chorus

e|----------------------------|----------------------------|
B|----------------------------|----------------------------|
G|------7-9999---------5-7777-|------7-9999----------------|
D|--777-7-9999-----555-5-7777-|--777-7-9999-----555-22-4-5-|
A|--777-5-7777-----555-3-5555-|--777-5-7777-----555-22-4-5-|
E|--555------------333--------|--555------------333-00-2-3-|

e|----------------------------|------------------------|
B|----------------------------|------------------------|
G|------7--9999---------7777--|-----55-9999------7777--|
D|--777-7--9999----5555-7777--|--77-55-9999-5555-7777--|
A|--777-5--7777----5555-5555--|--77-33-7777-5555-5555--|
E|--555------------3333-------|--55---------3333-------|

Bridge 2. Same as intro(3 and 4 time of intro)

verse
bridge
chorus
bridge 2 

e|--------------|---------------------------------------|
B|--------------|---------------------------------------|
G|--------------|--------------------77777777-99999-12--|
D|--7=========--|--77777777-55555555-77777777-99999-12--|
A|--7=========--|--77777777-55555555-55555555-77777-10--|
E|--5=========--|--55555555-33333333--------------------|

chorus
bridge 2

the end! thats it!! hope you like it!!!:)
Comments