Offspring - Amazed Chords & Tabs

 

Amazed Chords & Tabs

Offspring Chords & Tabs

Version: 1 Type: Tab 0 ratings
1 star 2 stars 3 stars 4 stars 5 stars
comments

Amazed Tab

Artist: The Offspring
Song: amazed
Tabbed by: John leadman



/ - slide up
\ - slide down
: - let ring
x - mute

Intro:
e-|------------------------------------------------------------------|-
B-|------------------------------------------------------------------|-
G-|----------------------------------7--7-7-7-7-7-7--5--5-5-5-5-5-5--|-
D-|--7--7-7-7-7-7-7--5--5-5-5-5-5-5--7--7-7-7-7-7-7--5--5-5-5-5-5-5--|-
A-|--7--7-7-7-7-7-7--5--5-5-5-5-5-5--5--5-5-5-5-5-5--3--3-3-3-3-3-3--|-
E-|--5--5-5-5-5-5-5--3--3-3-3-3-3-3----------------------------------|-

Verse:              x2                               x1
e-|----------------|--------------------------------|-
B-|----------------|--------------------------------|-
G-|--9-:--/11:/12:-|--9-:--/11:/12:-/14:-12:-11:-5:-|-
D-|--7-:--/9-:/10:-|--7-:--/9-:/10:-/12:-10:--9:-7:-|-
A-|----------------|--------------------------------|-
E-|----------------|--------------------------------|-
[ Tab from: http://www.guitartabs.cc/tabs/o/offspring/amazed_tab.html ]
Chorus:
e-|--------------------------------------------------------------------|- x3
B-|--------------------------------------------------------------------|-
G-|--9---9-9--10-10-10--9--9-9-9-9-9-9x-----------------7--7-7-7-7-7x--|-
D-|--7---7-7--12-12-12--9--9-9-9-9-9-9x--5--5-5-5-5-5x--7--7-7-7-7-7x--|-
A-|---------------------7--7-7-7-7-7-7x--5--5-5-5-5-5x--5--5-5-5-5-5x--|-
E-|--------------------------------------3--3-3-3-3-3x-----------------|-

e-|--------------------------------------------------------------------|- x1
B-|--------------------------------------------------------------------|-
G-|--9---9-9--10-:------9--:----------------------------7--7-7-7-7-7x--|-
D-|--7---7-7--12-:------9--:-------------5--5-5-5-5-5x--7--7-7-7-7-7x--|-
A-|---------------------7--:-------------5--5-5-5-5-5x--5--5-5-5-5-5x--|-
E-|--------------------------------------3--3-3-3-3-3x-----------------|-

Bridge:
e-|---------------------------------------------|-
B-|---------------------------------------------|-
G-|--------------------------x-x-x-5-7-5-5-5-5--|-
D-|--x-----------------x-x-x-7-7-7-7-7-7-7------|-
A-|--x-----------x-x-x-7-7-7-7-7-7-7-7----------|-
E-|--x-x-x-x-x-x-5-5-5-5-5-5-5-5----------------|-


Intro x2
Verse x2 (let the last chord ring on the 2nd time)
-- bass --
Verse x2
Chorus
Verse x2 (let the last chord ring on the 2nd time)
-- bass --
Verse x2
Chorus
Verse x2 (let the last chord ring on the 2nd time)
Bridge
Chorus x2
Verse x2 (let the last chord ring on the 2nd time)

Note: Amazed is the most technically/vocally advanced song on 
Ixnay on the Hombre if not on any of the 4 albums. 
(In my opinion at least :P)  


Comments