Offspring - All Along Chords & Tabs

 

All Along Chords & Tabs

Offspring Chords & Tabs

Version: 1 Type: Bass Tab 0 ratings
1 star 2 stars 3 stars 4 stars 5 stars
comments

All Along Bass Tab

Tablatura de NICO M. (nicokbbl@hotmail.com)

Artista: The Offspring
Cancion: All Along
Album: Conspiracy Of One (2000) 



Intro
1|---------------------------------------------------------------|
2|---------------------------------------------------------------|x2
3|-7-7-7-7-7-7--5-5-5--5------------------------------10-10-10---|
4|-----------------------3-3-3-3-5-5--5-5-5-5--5/8-8-------------|




1|---------------------------------------------------------------|
2|---------------------------------------------------------------|
3|---------------------5--5-5-5-5--5-5-5-------------------------|
4|--0--0-0-0-0--0-0-0--------------------------------------------|

  Deep inside secret's burning


1|---------------------------------------------------------------|
2|---------------------------------------------------------------|
3|---------------------3--3-3-3----------------------------------|
4|--5--5-5-5-5--5-5-5------------3--3-3-3----10-10-10------------|


  I should have known all the while what's true


1|---------------------------------------------------------------|
2|---------------------------------------------------------------|
3|---------------------5--5-5-5-5--5-5-5-------------------------|
4|--0--0-0-0-0--0-0-0--------------------------------------------|


  I went along, to fool myself


1|---------------------------------------------------------------|
2|---------------------------------------------------------------|
3|---------------------3--3-3-3----------------------------------|
4|--5--5-5-5-5--5-5-5------------3--3-3-3----10-10-10------------|

  Can't go on, I can't escape it


Coro
1|---------------------------------------------------------------|
2|---------------------------------------------------------------|x2
3|--7-7-7-7-5-5-5-5-------------10-10----------------------------|
4|------------------5-5-5-5-8-8----------------------------------|


  All along
  I think I really knew
  It was there in the words unspoken
  All along
  Still believed in you
  Now I leave here betrayed and broken


1|---------------------------------------------------------------|
2|---------------------------------------------------------------|
3|-7-7-7-7-7-7--5-5-5--5------------------------------10-10-10---|
4|-----------------------3-3-3-3-5-5--5-5-5-5--5/8-8-------------|



[ Tab from: http://www.guitartabs.cc/tabs/o/offspring/all_along_btab.html ]
1|---------------------------------------------------------------|
2|---------------------------------------------------------------|
3|---------------------5--5-5-5-5--5-5-5-------------------------|
4|--0--0-0-0-0--0-0-0--------------------------------------------|

 
  Close my eyes from the burning


1|---------------------------------------------------------------|
2|---------------------------------------------------------------|
3|---------------------3--3-3-3----------------------------------|
4|--5--5-5-5-5--5-5-5------------3--3-3-3----10-10-10------------|


  All along all the while it's true


1|---------------------------------------------------------------|
2|---------------------------------------------------------------|
3|---------------------5--5-5-5-5--5-5-5-------------------------|
4|--0--0-0-0-0--0-0-0--------------------------------------------|


  Take it on, or turn your back


1|---------------------------------------------------------------|
2|---------------------------------------------------------------|
3|---------------------3--3-3-3----------------------------------|
4|--5--5-5-5-5--5-5-5------------3--3-3-3----10-10-10------------|

  Either way, you can't escape it



Coro
1|---------------------------------------------------------------|
2|---------------------------------------------------------------|x2
3|--7-7-7-7-5-5-5-5-------------10-10----------------------------|
4|------------------5-5-5-5-8-8----------------------------------|


  All along
  I think I really knew
  It was there in the words unspoken
  All along
  Still believed in you
  Now I leave here betrayed and broken


1|---------------------------------------------------------------|
2|---------------------------------------------------------------|x4
3|-7-7-7-7-7-7--5-5-5--5------------------------------10-10-10---|
4|-----------------------3-3-3-3-5-5--5-5-5-5--5/8-8-------------|



Coro
1|---------------------------------------------------------------|
2|---------------------------------------------------------------|x2
3|--7-7-7-7-5-5-5-5-------------10-10----------------------------|
4|------------------5-5-5-5-8-8----------------------------------|


  All along
  I think I really knew
  It was there in the words unspoken
  All along
  Still believed in you
  Now I leave here betrayed and broken



1|---------------------------------------------------------------|
2|---------------------------------------------------------------|
3|--------10--7--------------------------------------------------|
4|--5--8---------------------------------------------------------|

 
  All along I still believed in you
Comments