Off With Their Heads - Your Child Is Dead Chords & Tabs

 

Your Child Is Dead Chords & Tabs

Off With Their Heads Chords & Tabs

Version: 1 Type: Bass Tab 0 ratings
1 star 2 stars 3 stars 4 stars 5 stars
comments

Your Child Is Dead Bass Tab

Intro part 1 and 2 might be a bit off, hard for me to tell.

intro part 1

G--------------------------5-|         G----------------------------------|        
D-----------------------3h5--| x3 then D----------------------------------| x1
A-3-3-3--3---3-3-3--3--------|         A-3-3-3--3---3-3-3--3-3-3-3-----333| 
E------23---------23---------|         E------23---------23---------------| 

intro part 2

G----------------------------------------------------------------------------|
D----------------------------------------------------------------------------|
A---33333333----------------------------33333333-----------------------------|
E------------33333333-55555555-11111111----------33333333-55555555-11111111--|

Verse 1 (part 1)"The last thing you need.....

G----------------------------------------------------------------------------|
D----------------------------------------------------------------------------|
A----333-----333-----333------------333-----333-----333----------------------|
E--------333-----333-----111-333333-----333-----333-----111-333333-----------|

Verse 1 (part 2)"How many times can a little kid..........

G----------------------------------------------------------------------------|
D----------------------------------------------------------------------------|
A----------------------------------------------------------------------------|
E----555555-333333-55555-3-111111-555555-333333-111111-333333----------------|

Chorus 1 "WWWWrrrrrrrrooooooonnnnnngggggg...............
[ Tab from: http://www.guitartabs.cc/tabs/o/off_with_their_heads/your_child_is_dead_btab.html ]
G----------------------------------------------------------------------------|
D----------------------------------------------------------------------------|
A----33333333----------------------------33333333----------------------------|
E-------------33333333-55555555-11111111----------33333333-55555555-11111111-|

Bridge

G----------------------------------------------------------------------------|
D----------------------------------------------------------------------------|
A----33--------33333333-33--------33333333-----------------------------------|
E---------33-----------------33----------------------------------------------|

Verse 2 (part 1)"The last thing you need.....

G----------------------------------------------------------------------------|
D----------------------------------------------------------------------------|
A----3-------3-------333------------3-------3-------333----------------------|
E----------3-------3-----111-333333-------3-------3-----111-333333-----------|

Verse 2 (part 2)"How many times can a little kid..........

G----------------------------------------------------------------------------|
D----------------------------------------------------------------------------|
A----------------------------------------------------------------------------|
E----555555-333333-55555-3-111111-555555-333333-111111-333333----------------|

Bridge (similar to intro)

G----------------------------------------------------------------------------|        
D----------------------------------------------------------------------------|
A-3-3-3--3--3-3-5-3-3-3-3--3--3-3-5-3-3-3-3--3--3-3-5-3-3-3-3--3-33333----333| 
E------23----------------23----------------23----------------23--------------| 

Chorus 2 "WWWWrrrrrrrrooooooonnnnnngggggg...............

G----------------------------------------------------------------------------|
D----------------------------------------------------------------------------|
A----33333333----------------------------33333333----------------------------|
E-------------33333333-55555555-11111111----------33333333-55555555-11111111-|
Comments