Off With Their Heads - I Am You Chords & Tabs

 

I Am You Chords & Tabs

Off With Their Heads Chords & Tabs

Version: 1 Type: Bass Tab 0 ratings
1 star 2 stars 3 stars 4 stars 5 stars
comments

I Am You Bass Tab

   
I Am You by Off With Their Heads Tabs

Intro
G-------|     G----------------------------------------------------------------------|
D--7----|     D----------------------------------------------------------------------| x2
A-7-750-|     A---------55555555--------55555555--------55555555----------55555420---|
E-------|     E-55555555--------55555555--------55555555--------00000000-------------|


Verse
G----------------------------------------------------------------------|     G---------|
D----------------------------------------------------------------------| x2  D----7----|
A---------55555555--------55555555--------55555555---------------------|     A--57-750-|
E-55555555--------55555555--------55555555--------0000000000000000-----|     E---------|

G----------------------------------------------------------------------|
D----------------------------------------------------------------------| x2
A---------55555555--------55555555--------55555555---------------------|
E-55555555--------55555555--------55555555--------0000000000000000-----|


Pre Chorus
G----------------------------------------------------------------------|
D---------------------------------------------------99--99--99--99-----|
A-5555555555553333----------------555555555555555577--77--77--77-------|
E-----------------5555555555557777-------------------------------------|
[ Tab from: http://www.guitartabs.cc/tabs/o/off_with_their_heads/i_am_you_btab.html ]
Chorus
G------------------------------------------------------------------|
D------------------------------------------------------------------|
A---------55555555--------55555555--------55555555--------55555555-|
E-55555555--------00000000--------55555555--------00000000---------|

G-------------------------------------------------------------------------|
D----------------------------------------------------99---------99--------|
A---------55555555--------55555555--------5555555577---77555577---7755555-|
E-55555555--------00000000--------55555555--------------------------------|

Bridge Intro?
G------------------------------------------------------------------------------------------------|
D----------------------------------------------------------------------------------99--99--99--99|
A----------5-5----------------5-5---------------5-5--------------555555555555555577--77--77--77--|
E-5-5-0-000----0-000-5-5-0-000----0-0005-5-0-000----0-0005-5-0000--------------------------------|

Bridge
G----------|     G---|
D----------|     D---|
A-00000000-| x14 A-0-|
E----------|     E---|

Chorus 2
G------------------------------------------------------------------|
D------------------------------------------------------------------|
A---------55555555--------55555555--------55555555--------55555555-|
E-55555555--------00000000--------55555555--------00000000---------|

G-------------------------------------------------------------------------|
D----------------------------------------------------99---------99--------|
A---------55555555--------55555555--------5555555577---77555577---7755555-|
E-55555555--------00000000--------55555555--------------------------------|

G----|
D----|
A----|
E-5~-|
Comments