Off By One - Been Alone Chords & Tabs

 

Been Alone Chords & Tabs

Off By One Chords & Tabs

Version: 1 Type: Tab 0 ratings
1 star 2 stars 3 stars 4 stars 5 stars
comments

Been Alone Tab

E----------------------
B----------------------
G-9-9------------------
D-9-9-9-9-10-10-5-5----
A-7-7-9-9-10-10-5-5----
e-----7-7--8--8-3-3----

This part picks up at "lived at"
E-----------------
B-----------------
G-9-9-------------
D-9-9-9-9-10-10---
A-7-7-9-9-10-10---
e-----7-7--8--8---
[ Tab from: http://www.guitartabs.cc/tabs/o/off_by_one/been_alone_tab.html ]
Chorus:
E---------------------
B---------------------
G-9-9-----------7-7---
D-9-9-10-10-5-5-7-7---
A-7-7-10-10-5-5-5-5---
e------8--8-3-3-------

Bridge: "Time again..."
E---------------------
B---------------------
G-9-9-----7-7-12-11---
D-9-9-5-5-7-7-12-11---
A-7-7-5-5-5-5-10--9---
e-----3-3-------------

You will have to listen to the song to hear how it goes and where the changes are.

Comments