Of Montreal - Rapture Rapes The Muses Chords & Tabs

 

Rapture Rapes The Muses Chords & Tabs

Of Montreal Chords & Tabs

Version: 1 Type: Tab 0 ratings
1 star 2 stars 3 stars 4 stars 5 stars
comments

Rapture Rapes The Muses Tab

Rapture _____ the muses

(Into)
-------------------------------------------------------------------)
-12-10-12-10-12-10------10-12-10-12-10-12-10-----10--)
--------------------------11-----------------------------11------)
                                                                                            >    Repeat as necesary
--------------------------------------10-12-14-12-10-12-10---)
--11-10-11-10-11-10------10-12------------------------------)
---------------------------12--------------------------------------)
[ Tab from: http://www.guitartabs.cc/tabs/o/of_montreal/rapture_rapes_the_muses_tab.html ]
(verse)
---7--------3----------------5-
---9--------3-----------------5-
---9--------4---(2 times)---6-
---9--------5-----------------7-
---7--------5-----------------7-
---7--------3-----------------5-

(Chorous)
-7-----5---------3
-7-----7---------3
-8-----7---------4
-9-----7---------5
-9-----5---------5
-7-----5---------3

(Bridge)
-4---9----5---7---9---
-4---9----5---7---9---
-5---9----6---8---9---
-6---11---7---9---11-
-6---11---7---9---11-
-4---9----5---7---9---

(the order goes)
intro
verse
chorous
verse
intro riff
chorous
verse
bridge
chorous
intro riff till it fades out
Comments