Of Mice And Men - Still YDG'n Chords & Tabs

 

Of Mice And Men Chords & Tabs

Version: 1 Type: Tab 0 ratings
1 star 2 stars 3 stars 4 stars 5 stars
comments

Still YDG'n Tab

-----------------------------------------------------------------------------
			   Still YDG'N - Of Mice & Men
-----------------------------------------------------------------------------
Tabbed by: Adrian
Email: afonda95051@gmail.com

Tuning: Drop C

GUITAR 1-LEFT

(0:00-0:02)
|------------------|
|---6666--6666--6--|
|---9999--9999--9--|
|------------------|
|------------------|
|------------------|

(0:02-0:16)
|----------------------------------------------------------|
|----------------------------------------------------------|
|----------------------------------------------------------|(2x)
|----------------------------------------------------------|
|-0000-----------0000-----------0000-----------1111-0~0~0--|
|-0000-1///13-0--0000-1///13-0--0000-1///13-0--1111-1~1~1--|
  ....           ....           ....           .... . . .

(0:16-0:33)\/Those are quadruplets\/
|----------------||---------------------------|    |-----------|
|----------------||---------------------------|    |-----------|
|----------------||---------------------------|(4x)|-----------|2nd ending
|----------------||---------------------------|    |-----------|only
|-0000-0000-0000-||-0000-0000-0000-0000-0000--|    |-----------|
|-0000-0000-0000-||-0000-0000-0000-0000-0000--|    |-00000000--|
  .... .... ....    .... .... .... .... ....         ........

(0:33-0:52)
|-----------------------------------------------------------------------|
|-----------------------------------------------------------------------|
|-----------------------------------------------------------------------|(2x)
|-10-----10-----10---7------7------7------------------------------------|
|-8-8888-8-8888-8-88-5-5555-5-5555-5--7h8p7---7h8p7---7h8p7---33335555--|
|-8-8888-8-8888-8-88-5-5555-5-5555-5-------0-0-----0-0-----0-0----------|
    ....   ....   ..   ....   ....
then
|---------------------------|
|---------------------------|
|---------------------------|
|-10-----10-----10---7------|
|-8-8888-8-8888-8-88-5(5x)--|
|-8-8888-8-8888-8-88-5------|
    ....   ....   ..  

(0:52-1:06)                     (1st & 3rd) (2nd)       (4th
|--------------------------|    |----------||----------||-------|
|--------------------------|    |----------||----------||-------|
|--------------------------|(4x)|----------||----------||-------|
|--------------------------|    |----------||----------||-7~-5~-|
|-7h8p7---7h8p7---7h8p7----|    |-33335555-||-55553333-||-5~-3~-|
|------0-0-----0-0-----0-0-|    |----------||----------||-------|
[ Tab from: http://www.guitartabs.cc/tabs/o/of_mice_and_men/still_ydgn_tab.html ]
(1:06-1:34)          (1st & 3rd) (2nd & 4th)
|---------------|    |--------|  |-----------------------------------------|
|---------------|    |--------|  |-----------------------------------------|
|---------------|(4x)|--------|  |-----------------------------------------|
|-10-----7------|    |-0------|  |-----------------------------------------|
|-8-(8x)-5(8x)--|    |-0(16x)-|  |-----------------------------------------|
|-8------5------|    |-0------|  |-12b-00-12b-00-12b-00-12b-00-13b-0-13b-0-|

(1:34-2:01)
|-----------------------------------------|
|-----------------------------------------|
|-----------------------------------------|(2x)
|-----------------------------------------|
|-----------------------------------------|
|-12b-00-12b-00-12b-00-12b-00-13b-0-13b-0-|
then
|----------------------------------|
|----------------------------------|
|----------------------------------|
|----------------------------------|
|----------------------------------|
|-12b-00-12b-00-12b-00-12b-00-13b--|
and then
|-----------------------------------------|
|-----------------------------------------|
|-----------------------------------------|(4x)
|-----------------------------------------|
|-----------------------------------------|
|-12b-00-12b-00-12b-00-12b-00-13b-0-13b-0-|

(2:01-2:15)
|----------------------------------------------------------|
|----------------------------------------------------------|
|----------------------------------------------------------|(2x)
|----------------------------------------------------------|
|-0000-----------0000-----------0000-----------1111-0~0~0--|
|-0000-1///13-0--0000-1///13-0--0000-1///13-0--1111-1~1~1--|
  ....           ....           ....           .... . . .

(2:15-2:33)
|-----------------------------------------------------------------------|
|-----------------------------------------------------------------------|
|-----------------------------------------------------------------------|(2x)
|-10-----10-----10---7------7------7------------------------------------|
|-8-8888-8-8888-8-88-5-5555-5-5555-5--7h8p7---7h8p7---7h8p7---33335555--|
|-8-8888-8-8888-8-88-5-5555-5-5555-5-------0-0-----0-0-----0-0----------|
    ....   ....   ..   ....   ....
then
|------------------------------------|
|------------------------------------|
|------------------------------------|
|-----------------------------7~-5~--|
|---7h8p7---7h8p7---7h8p7-----5~-3~--|
|--------0-0-----0-0-----0-0---------|


(2:33-               (1st & 3rd) (2nd)
|---------------|    |--------|  |-----------------------------------------|
|---------------|    |--------|  |-----------------------------------------|
|---------------|(4x)|--------|  |-----------------------------------------|
|-10-----7------|    |-0------|  |-----------------------------------------|
|-8-(8x)-5(8x)--|    |-0(16x)-|  |-----------------------------------------|
|-8------5------|    |-0------|  |-12b-00-12b-00-12b-00-12b-00-13b-0-13b-0-|
then
(4th)\/Those are quadruplets\/
|---------------------------|    
|---------------------------|    
|---------------------------|(4x)
|---------------------------|    
|-0000-0000-0000-0000-0000--|    
|-0000-0000-0000-0000-0000--|   
  .... .... .... .... ....        

Comments