Of A Revolution - Crazy Game Of Poker Chords & Tabs

 

Crazy Game Of Poker Chords & Tabs

Of A Revolution Chords & Tabs

Version: 4 Type: Tab 1 rating
1 star 2 stars 3 stars 4 stars 5 stars
comments

Crazy Game Of Poker Tab

   
This is correct for what I have on my CD. It's a little different
than what's posted, I don't know if other copies may be different.

It's only the intro and the solo.


      h - hammer on 
      p - pull off 
      b - bend string up
      r - release bend
      / - slide up
      \ - slide down
      v - vibrato (sometimes written as ~)
      t - right hand tap
      x - play 'note' with heavy damping


Intro

        1/4
|-10-10—b10--|-8-----8--55------------------------------------|
|--8--8---8--|-8-----8--55------------------------------------|
|------------|-------------7b8-5-------5-------5-7-7b8-5h7-5--|
|------------|---------------------5h7-----5-7----------------|
|------------|------------------------------------------------|
|------------|------------------------------------------------|

|-------------------------------------------------------|
|-------------------------------------------------------|
|-----------5—7b-5-5h7-5----9-10-10-12-12s14-12-10-9----|
|-------5-7---------------------------------------------|
|-5-6-7-------------------------------------------------|
|-------------------------------------------------------|

|-----------------------------|-0---0-0-0-0-1-1-1---1--|
|-----------------------5-6-8-|-0h1-1-1-1-0-1-1-1------|
|-----------------4-5-7-------|-2---2-2-2-0-2-2-2-2----|
|-------------5-7-------------|-2---2-2-2-0-3-3-3------|
|-------5-7-8-----------------|-0---0-0-0-0-3-3-3------|
|-5-7-8-----------------------|-0---0-0-0-0-1-1-1------|
[ Tab from: http://www.guitartabs.cc/tabs/o/of_a_revolution/crazy_game_of_poker_tab_ver_4.html ]
|-8h10-10-8-8-10-8h10-8-7-8-8h10-8-|
|----------------------------------|
|----------------------------------|
|----------------------------------|
|----------------------------------|
|----------------------------------|

Chord progressions throughout the song:
C G Am F





Solo 2
                 1/4 
|-8---8-10-10-10-b10-8--8--------------------------------------|
|---8----------------8--8---x-x--------------------------------|
|--------------------------------7b-5-----5—7b-5~--------------|
|-------------------------------------5h7----------------------|
|--------------------------------------------------------------|
|--------------------------------------------------------------|

|-8-5-----------------------------------|
|-----8-5---------------(7)(8)(7)-------|
|---------7-5-7b-5-----5-7--8--7—5h7~---|
|------------------5h7------------------|
|---------------------------------------|
|---------------------------------------|

|-------------------5---5s|(8)
|---------------4s5---5---|
|-----------5-7-----------|
|-------5-7---------------|
|-5-6-7-------------------|
|-------------------------|

|-8---8-8---10-10-10-8---12----12---13-12-15-13-12--------------|
|---8-----8--8--8--8-8------12---------------------15-13-12-13~-|
|---------------------------------------------------------------|
|---------------------------------------------------------------|
|---------------------------------------------------------------|
|---------------------------------------------------------------|



Hope you enjoy. These guys are a kickass band.
JP
Comments