Of A Revolution - Black Rock Chords & Tabs

 

Black Rock Chords & Tabs

Of A Revolution Chords & Tabs

Version: 1 Type: Tab 1 rating
1 star 2 stars 3 stars 4 stars 5 stars
comments

Black Rock Tab

   
Here it is, black rock..nobody else would tab it out so here 
i am goin to extra mile and learning it by ear...its pretty
dead on, play the verses reggae-like.  pEace

[ Tab from: http://www.guitartabs.cc/tabs/o/of_a_revolution/black_rock_tab.html ]
chorus:
            D                           A
e---------------12-------------------------7----
b----------(15)------15----------------(10)-------10-
g------14-------------------------9-----------
d--12------------------------7------------------
a---------------------------------------------
e---------------------------------------------

              
             Bm                        G 
e-------------------10--------------------5------
b------------(12)-------12------------(8)-------8-------
g-------11------------------------7--------------
d---9-------------------------5-----------------
a----------------------------------------------
e----------------------------------------------

verse: Bm, D, G (ska strokes, listen to it)
Comments