Of A Revolution - An Hour Ago Solo Chords & Tabs

 

An Hour Ago Solo Chords & Tabs

Of A Revolution Chords & Tabs

Version: 1 Type: Tab 0 ratings
1 star 2 stars 3 stars 4 stars 5 stars
comments

An Hour Ago Solo Tab

An Hour Ago - Of A Revolution
This is the solo in the middle of the song. Kind of a swing feel.
I'm not 100% sure, but it's pretty close. He often hits an extra
string above when playing single notes, gives it a little depth.


2:13
-3p0---------------------------------------------------------
-----3p0-----------------------------------------------------
---------2p0-----0---2---0---2---2---2---0---2---0---2---0---
-------------2p0---------------------------------------------
-------------------------------------------------------------
-------------------------------------------------------------

2:18
-----12--12--12------12--12--12------15--15--12--15--12--15--12-
-----12--12--12------12--12--12------15--15--12--15--12--15--12-
----------------------------------------------------------------
----------------------------------------------------------------
----------------------------------------------------------------
----------------------------------------------------------------

6 per count
2:22
-15p12----------------------------------------------------------------------------------
-------15p12----------------------------------------------------------------------------
-------------14p12-14----12----------------12----14----14----12----b14---12----14----12-
-------------------------------14----12h14-------14----14----12----b14---12----14----12-
----------------------------------------------------------------------------------------
----------------------------------------------------------------------------------------
[ Tab from: http://www.guitartabs.cc/tabs/o/of_a_revolution/an_hour_ago_solo_tab.html ]
2:26
----------------------------------------------------------------------------------------
----------------------------------------------------------------------------------------
-------------------12----------------12----14----b14---12----------12----b14---12-------
-------12----14----------------12h14-------------------------14-------------------------
-12h14----------------------------------------------------------------------------------
----------------------------------------------------------------------------------------




2:29
----------------------------------------------------------------------------------------
-12h13-12----13----------12h13-12----13----12-------------------------------------------
-------------------------------------------------14----12h14-12-------------------------
-------------------------------------------------------------------14----12-------------
----------------------------------------------------------------------------------------
----------------------------------------------------------------------------------------

2:34
-15-14-12-14-12-------------------------------------------------------------------------
----------------15----13----12----b13---12----------------------------------------------
-------------------------------------------14-12-b14---b14---12----12p10-------10----12-
-------------------------------------------------------------------------12-------------
----------------------------------------------------------------------------------------
----------------------------------------------------------------------------------------

2:38
----------------------------------------------------------------------------------------
----------------------------------------------------------------------------------------
-b14---12----b14---b14------12----b14---b14---------------------------------------------
----------------------------------------------------------------------------------------
----------------------------------------------------------------------------------------
----------------------------------------------------------------------------------------


Hope you enjoy it. These guys are a kickass band.
JP
Comments