Odium - Anger Chords & Tabs

 

Anger Chords & Tabs

Odium Chords & Tabs

Version: 1 Type: Tab 1 rating
1 star 2 stars 3 stars 4 stars 5 stars
comments

Anger Tab

#----------------------------------PLEASE NOTE---------------------------------#
		#This file is the author's own work and represents their interpretation of the #
		#song. You may only use this file for private study, scholarship, or research. #
		#------------------------------------------------------------------------------#

Song title:Anger
Artists:Odium 
Guitar 1: 7 string, standard
Guitar 2: 6 string, standard

Key:
*=natural harmonic
/=slide up
=slide down
p.m.=palm mute
~=hold/ vibrate

Intro:(only giutar 1)
guitar 1
-------------------------------------------
-3*p2--------------------------------------
------3*p2---------------------------------
-----------3*p2----------------------------
----------------3*p2-----------------------
---------------------3p2-------------------
-------------------------3p2---------------



guitar 1
-----------------------------------------------------------------------------------------------------
-----------------------------------------------------------------------------------------------------
-----------------------------------------------------------------------------------------------------
-----------------------------------------------------------------------------------------------------
----------------------------------------------------------------------------------------------5----3-
--------------------1-1-1-1-1------------------3-3-3-3-3----------------1-1-1-----------------5----3-
-0-0-0--0--0-0-0--0-----------0-0--0--0-0-0--0-----------0-0--0--0-0-0--0------0-0--0--0-0-0--3----1-



Chorus 1:
guitar 1
-----------------------------------------------------------------------------
-----------------------------------------------------------------------------
-----------------------------------------------------------------------------
-----------------------------------------------------------------------------
-2~~~~~~~~~--10~~~~~~~~~--5~~~~~-------3~~~~~~~~-----------------------------
-2~~~~~~~~~--10~~~~~~~~~--5~~~~~-------3~~~~~~~~--X3-------------------------
-0~~~~~~~~~--8~~~~~~~~~---3~~~~~-------1~~~~~~~~-----------------------------

guitar 2
-----------------------------------------------------------------------------
-----------------------------------------------------------------------------
-4--4--4-4--4/12--12--12-127---7-7-7--5-5-5/7-7-----------------------------
--------------------------------------------------X3-------------------------
-2--2--2-2--2/10--10--10-105---5-5-5--3-3-3/5-5-----------------------------
-----------------------------------------------------------------------------



guitar 1
----------------------------------------------------
----------------------------------------------------
----------------------------------------------------
----------------------------------------------------
-2~~~~~~~~~--10~~~~~~~~~--5~~~~~--------------------
-2~~~~~~~~~--10~~~~~~~~~--5~~~~~--------------------
-0~~~~~~~~~--8~~~~~~~~~---3~~~~~--------------------

guitar 2
----------------------------------------------------
----------------------------------------------------
-4--4--4-4--4/12--12--12-127---7-7-7------5------4-
----------------------------------------------------
-2--2--2-2--2/10--10--10-105---5-5-5--3-3-3--2-2-2-
----------------------------------------------------
p.m.				       - -    - -



guitar 1
-----------------------------------------------------------------------------
-----------------------------------------------------------------------------
-----------------------------------------------------------------------------
-----------------------------------------------------------------------------
-2--2--2-2-2/10--10--10-10--5--5--5-5--3-3/5-5-2-----------------------------
-2--2--2-2-2/10--10--10-10--5--5--5-5--3-3/5-5-2-----------------------------
-0--0--0-0-0/8---8---8--8---3--3--3-3--1-1/3-3-0-----------------------------

guitar 2
-----------------------------------------------------------------------------
-----------------------------------------------------------------------------
-4--4--4-4--4/12--12--12-127---7-7-7--5-5-5/7-7-----------------------------
-----------------------------------------------------------------------------
-2--2--2-2--2/10--10--10-105---5-5-5--3-3-3/5-5-----------------------------
-----------------------------------------------------------------------------



Verse:
guitar 1
----------------------------------------------------------------------------
----------------------------------------------------------------------------
----------------------------------------------------------------------------
-----------------------3-3-3-3------------------------5-5-5-5---------------
-2--2-2--2--2-2--2--2--3-3-3-3--2--2-2--2--2-2--2--2--5-5-5-5---------------
-2--2-2--2--2-2--2--2--1-1-1-1--2--2-2--2--2-2--2--2--3-3-3-3---------------
-0--0-0--0--0-0--0--0-----------0--0-0--0--0-0--0--0------------------------

guitar 2
----------------------------------------------------------------------------
----------------------------------------------------------------------------
----------------------------------------------------------------------------
-----------------------3-3-3-3------------------------5-5-5-5---------------
-2--2-2--2--2-2--2--2--3-3-3-3--2--2-2--2--2-2--2--2--5-5-5-5---------------
-2--2-2--2--2-2--2--2--1-1-1-1--2--2-2--2--2-2--2--2--3-3-3-3---------------
-0--0-0--0--0-0--0--0-----------0--0-0--0--0-0--0--0------------------------



guitar 1
--------------------------------------------------------------
--------------------------------------------------------------
--------------------------------------------------------------
-----------------------3-3-3-3--------------------------------
-2--2-2--2--2-2--2--2--3-3-3-3--2--2-2--2--2-2--2--2----5---3-
-2--2-2--2--2-2--2--2--1-1-1-1--2--2-2--2--2-2--2--2----5---3-
-0--0-0--0--0-0--0--0-----------0--0-0--0--0-0--0--0----3---1-

guitar 2
--------------------------------------------------------------
--------------------------------------------------------------
--------------------------------------------------------------
-----------------------3-3-3-3--------------------------------
-2--2-2--2--2-2--2--2--3-3-3-3--2--2-2--2--2-2--2--2----5---3-
-2--2-2--2--2-2--2--2--1-1-1-1--2--2-2--2--2-2--2--2----5---3-



chorus 2:
guitar 1
-----------------------------------------------------------------------------
-----------------------------------------------------------------------------
-----------------------------------------------------------------------------
-----------------------------------------------------------------------------
-2--2--2-2-2/10--10--10-10--5--5--5-5--3-3/5-5-2-----------------------------
-2--2--2-2-2/10--10--10-10--5--5--5-5--3-3/5-5-2-----------------------------
-0--0--0-0-0/8---8---8--8---3--3--3-3--1-1/3-3-0-----------------------------

guitar 2
-----------------------------------------------------------------------------
-----------------------------------------------------------------------------
-4--4--4-4--4/12--12--12-127---7-7-7--5-5-5/7-7-----------------------------
-----------------------------------------------------------------------------
-2--2--2-2--2/10--10--10-105---5-5-5--3-3-3/5-5-----------------------------
-----------------------------------------------------------------------------



guitar 1
-----------------------------------------------------------------------------
-----------------------------------------------------------------------------
-----------------------------------------------------------------------------
-----------------------------------------------------------------------------
-2--2--2-2-2/10--10--10-10--5--5--5-5--3-3/5-5-2-----------------------------
-2--2--2-2-2/10--10--10-10--5--5--5-5--3-3/5-5-2-----------------------------
-0--0--0-0-0/8---8---8--8---3--3--3-3--1-1/3-3-0-----------------------------

guitar 2
-----------------------------------------------------------------------------
-----------------------------------------------------------------------------
-4--4--4-4--4/12--12--12-127---7-7-7--5-5-5/7-7-----------------------------
-----------------------------------------------------------------------------
-2--2--2-2--2/10--10--10-105---5-5-5--3-3-3/5-5-----------------------------
-----------------------------------------------------------------------------



verse 2:
guitar 1
----------------------------------------------------------------------------
----------------------------------------------------------------------------
----------------------------------------------------------------------------
-----------------------3-3-3-3------------------------5-5-5-5---------------
-2--2-2--2--2-2--2--2--3-3-3-3--2--2-2--2--2-2--2--2--5-5-5-5---------------
-2--2-2--2--2-2--2--2--1-1-1-1--2--2-2--2--2-2--2--2--3-3-3-3---------------
-0--0-0--0--0-0--0--0-----------0--0-0--0--0-0--0--0------------------------

guitar 2
----------------------------------------------------------------------------
----------------------------------------------------------------------------
----------------------------------------------------------------------------
-----------------------3-3-3-3------------------------5-5-5-5---------------
-2--2-2--2--2-2--2--2--3-3-3-3--2--2-2--2--2-2--2--2--5-5-5-5---------------
-2--2-2--2--2-2--2--2--1-1-1-1--2--2-2--2--2-2--2--2--3-3-3-3---------------
-0--0-0--0--0-0--0--0-----------0--0-0--0--0-0--0--0------------------------



guitar 1
--------------------------------------------------------------
--------------------------------------------------------------
--------------------------------------------------------------
-----------------------3-3-3-3--------------------------------
-2--2-2--2--2-2--2--2--3-3-3-3--2--2-2--2--2-2--2--2----5---3-
-2--2-2--2--2-2--2--2--1-1-1-1--2--2-2--2--2-2--2--2----5---3-
-0--0-0--0--0-0--0--0-----------0--0-0--0--0-0--0--0----3---1-
[ Tab from: http://www.guitartabs.cc/tabs/o/odium/anger_tab.html ]
guitar 2
--------------------------------------------------------------
--------------------------------------------------------------
--------------------------------------------------------------
-----------------------3-3-3-3--------------------------------
-2--2-2--2--2-2--2--2--3-3-3-3--2--2-2--2--2-2--2--2----5---3-
-2--2-2--2--2-2--2--2--1-1-1-1--2--2-2--2--2-2--2--2----5---3-



Chorus 3:(X2)
guitar 1
-----------------------------------------------------------------------------
-----------------------------------------------------------------------------
-----------------------------------------------------------------------------
-----------------------------------------------------------------------------
-2--2--2-2-2/10--10--10-10--5--5--5-5--3-3/5-5-2-----------------------------
-2--2--2-2-2/10--10--10-10--5--5--5-5--3-3/5-5-2-----------------------------
-0--0--0-0-0/8---8---8--8---3--3--3-3--1-1/3-3-0-----------------------------

guitar 2
-----------------------------------------------------------------------------
-----------------------------------------------------------------------------
-4--4--4-4--4/12--12--12-127---7-7-7--5-5-5/7-7-----------------------------
-----------------------------------------------------------------------------
-2--2--2-2--2/10--10--10-105---5-5-5--3-3-3/5-5-----------------------------
-----------------------------------------------------------------------------



guitar 1
-----------------------------------------------------------------------------
-----------------------------------------------------------------------------
-----------------------------------------------------------------------------
-----------------------------------------------------------------------------
-2--2--2-2-2/10--10--10-10--5--5--5-5--3-3/5-5-2-----------------------------
-2--2--2-2-2/10--10--10-10--5--5--5-5--3-3/5-5-2-----------------------------
-0--0--0-0-0/8---8---8--8---3--3--3-3--1-1/3-3-0-----------------------------

guitar 2
-----------------------------------------------------------------------------
-----------------------------------------------------------------------------
-4--4--4-4--4/12--12--12-127---7-7-7--5-5-5/7-7-----------------------------
-----------------------------------------------------------------------------
-2--2--2-2--2/10--10--10-105---5-5-5--3-3-3/5-5-----------------------------
-----------------------------------------------------------------------------



Interlude:
guitar 1
-----------------------------------------------------------------------------
-----------------------------------------------------------------------------
-----------------------------------------------------------------------------
-----------------------------------------------------------------------------
-2~~~~~~~~~--10~~~~~~~~~--5~~~~~-------3~~~~~~~~-----------------------------
-2~~~~~~~~~--10~~~~~~~~~--5~~~~~-------3~~~~~~~~--X3-------------------------
-0~~~~~~~~~--8~~~~~~~~~---3~~~~~-------1~~~~~~~~-----------------------------

guitar 2
-----------------------------------------------------------------------------
-----------------------------------------------------------------------------
-4--4--4-4--4/12--12--12-127---7-7-7--5-5-5/7-7-----------------------------
--------------------------------------------------X3-------------------------
-2--2--2-2--2/10--10--10-105---5-5-5--3-3-3/5-5-----------------------------
-----------------------------------------------------------------------------



guitar 1
----------------------------------------------------
----------------------------------------------------
----------------------------------------------------
----------------------------------------------------
-2~~~~~~~~~--10~~~~~~~~~--5~~~~~--------------------
-2~~~~~~~~~--10~~~~~~~~~--5~~~~~--------------------
-0~~~~~~~~~--8~~~~~~~~~---3~~~~~--------------------

guitar 2
----------------------------------------------------
----------------------------------------------------
-4--4--4-4--4/12--12--12-127---7-7-7------5------4-
----------------------------------------------------
-2--2--2-2--2/10--10--10-105---5-5-5--3-3-3--2-2-2-
----------------------------------------------------
p.m.				       - -    - -



Solo:
guitar 1
-----------------------------------------------
-----------------------------------------------
-4~~~~~~~~-/12~~~~~~~~~~~~7~~~~~~~~--5-5h7-5-4
-----------------------------------------------
-----------------------------------------------
-----------------------------------------------
-----------------------------------------------

(background of solo)
guitar 2
------------------------------------------------
------------------------------------------------
------------------------------------------------
------------------------------------------------
-2--2--2-2-2/10--10--10-10--5--5--5-5--3-3/5-5-2
-2--2--2-2-2/10--10--10-10--5--5--5-5--3-3/5-5-2



guitar 1
-----------------------------------------------
-----------------------------------------------
-4~~~~~~~~-/12~~~~~~~~~~~~7~~~~~~~~--5-5h7-5-4
-----------------------------------------------
-----------------------------------------------
-----------------------------------------------
-----------------------------------------------

guitar 2
------------------------------------------------
------------------------------------------------
------------------------------------------------
------------------------------------------------
-2--2--2-2-2/10--10--10-10--5--5--5-5--3-3/5-5-2
-2--2--2-2-2/10--10--10-10--5--5--5-5--3-3/5-5-2


guitar 1
------------------------------------------------
-3*p2-------------------------------------------
------3*p2--------------------------------------
-----------3*p2---------------------------------
----------------3*p2----------------------------
---------------------3p2------------------------
-------------------------3p2--------------------

guitar 2
------------------------------------------------
------------------------------------------------
------------------------------------------------
-4~~~~~~~~~~~~~~~~~~~~~~~~~~--------------------
-4~~~~~~~~~~~~~~~~~~~~~~~~~~--------------------
-2~~~~~~~~~~~~~~~~~~~~~~~~~~--------------------



Chorus 4:(X2)
guitar 1
-----------------------------------------------------------------------------
-----------------------------------------------------------------------------
-----------------------------------------------------------------------------
-----------------------------------------------------------------------------
-2--2--2-2-2/10--10--10-10--5--5--5-5--3-3/5-5-2-----------------------------
-2--2--2-2-2/10--10--10-10--5--5--5-5--3-3/5-5-2-----------------------------
-0--0--0-0-0/8---8---8--8---3--3--3-3--1-1/3-3-0-----------------------------

guitar 2
-----------------------------------------------------------------------------
-----------------------------------------------------------------------------
-4--4--4-4--4/12--12--12-127---7-7-7--5-5-5/7-7-----------------------------
-----------------------------------------------------------------------------
-2--2--2-2--2/10--10--10-105---5-5-5--3-3-3/5-5-----------------------------
-----------------------------------------------------------------------------



guitar 1
-----------------------------------------------------------------------------
-----------------------------------------------------------------------------
-----------------------------------------------------------------------------
-----------------------------------------------------------------------------
-2--2--2-2-2/10--10--10-10--5--5--5-5--3-3/5-5-2-----------------------------
-2--2--2-2-2/10--10--10-10--5--5--5-5--3-3/5-5-2-----------------------------
-0--0--0-0-0/8---8---8--8---3--3--3-3--1-1/3-3-0-----------------------------

guitar 2
-----------------------------------------------------------------------------
-----------------------------------------------------------------------------
-4--4--4-4--4/12--12--12-127---7-7-7--5-5-5/7-7-----------------------------
-----------------------------------------------------------------------------
-2--2--2-2--2/10--10--10-105---5-5-5--3-3-3/5-5-----------------------------
-----------------------------------------------------------------------------



Ending:
guitar 1
-----------------------------------------------------------------------------
-----------------------------------------------------------------------------
-----------------------------------------------------------------------------
-----------------------------------------------------------------------------
-2~~~~~~~~~--10~~~~~~~~~--5~~~~~-------3~~~~~~~~-----------------------------
-2~~~~~~~~~--10~~~~~~~~~--5~~~~~-------3~~~~~~~~--X3-------------------------
-0~~~~~~~~~--8~~~~~~~~~---3~~~~~-------1~~~~~~~~-----------------------------

guitar 2
-----------------------------------------------------------------------------
-----------------------------------------------------------------------------
-4--4--4-4--4/12--12--12-127---7-7-7--5-5-5/7-7-----------------------------
--------------------------------------------------X3-------------------------
-2--2--2-2--2/10--10--10-105---5-5-5--3-3-3/5-5-----------------------------
-----------------------------------------------------------------------------



guitar 1
----------------------------------------------------
----------------------------------------------------
----------------------------------------------------
----------------------------------------------------
-2~~~~~~~~~--10~~~~~~~~~--5~~~~~--------------------
-2~~~~~~~~~--10~~~~~~~~~--5~~~~~--------------------
-0~~~~~~~~~--8~~~~~~~~~---3~~~~~--------------------

guitar 2
----------------------------------------------------
----------------------------------------------------
-4--4--4-4--4/12--12--12-127---7-7-7------5------4-
----------------------------------------------------
-2--2--2-2--2/10--10--10-105---5-5-5--3-3-3--2-2-2-
----------------------------------------------------
p.m.				       - -    - -

Comments