Odds - Someone Whos Cool Chords & Tabs

 

Someone Whos Cool Chords & Tabs

Odds Chords & Tabs

Version: 1 Type: Tab 0 ratings
1 star 2 stars 3 stars 4 stars 5 stars
comments

Someone Whos Cool Tab

song-someone whos cool
artist-the odds
album-individually wraped
tabbed by-smellslikefeet1

listen for the strumming
verse {distortion}
|-----------------------------------------------|
|-----------------------------------------------|
|-------------------5-5-5-5--5-3-3-3------------|
|-3-3-3-3--6-6-6-6--5-5-5-5--5-3-3-3------------|x2
|-3-3-3-3--6-6-6-6--3-3-3-3--3-1-1-1------------|
|-1-1-1-1--4-4-4-4------------------------------|

chorus
| it was the suit...  | im a sheep in this..| of someone who is cool
|---------------------|---------------------|------------|
|---------------------|---------------------|------------|
|-3-3-3-3-------------|-5-5-5-5--3-3-3-3----|------------|
|-3-3-3-3--3-3-3-3-x2-|-5-5-5-5--3-3-3-3-x2-|-3-3-3-3--3-|
|-1-1-1-1--3-3-3-3----|-3-3-3-3--1-1-1-1----|-3-3-3-3--3-|
|----------1-1-1-1----|---------------------|-1-1-1-1--1-|

verse2
|-----------------------------------------------|
|-----------------------------------------------|
|-------------------5-5-5-5--5-3-3-3------------|x2
|-3-3-3-3--6-6-6-6--5-5-5-5--5-3-3-3------------|
|-3-3-3-3--6-6-6-6--3-3-3-3--3-1-1-1------------|
|-1-1-1-1--4-4-4-4------------------------------|
[ Tab from: http://www.guitartabs.cc/tabs/o/odds/someone_whos_cool_tab.html ]
chorus
| it was the suit...  | im a sheep in this..| of someone who is cool
|---------------------|---------------------|------------|
|---------------------|---------------------|------------|
|-3-3-3-3-------------|-5-5-5-5--3-3-3-3----|------------|
|-3-3-3-3--3-3-3-3-x2-|-5-5-5-5--3-3-3-3-x2-|-3-3-3-3--3-|
|-1-1-1-1--3-3-3-3----|-3-3-3-3--1-1-1-1----|-3-3-3-3--3-|
|----------1-1-1-1----|---------------------|-1-1-1-1--1-|


bridge (play bridge chords throw solo)
someone who is cool someone who is cool
|----------------------------------------|
|----------------------------------------|
|----------5-5-5-5--3-3-3-3--------------|
|-3-3-3-3--5-5-5-5--3-3-3-3--3-3-3-3-----|
|-3-3-3-3--3-3-3-3--1-1-1-1--3-3-3-3-----|
|-1-1-1-1--------------------1-1-1-1-----|

verse3
close but kinda meatless like actors...
|-----------------------------------------------|
|-----------------------------------------------|
|-------------------5-5-5-5--5-3-3-3------------|
|-3-3-3-3--6-6-6-6--5-5-5-5--5-3-3-3------------|x2
|-3-3-3-3--6-6-6-6--3-3-3-3--3-1-1-1------------|
|-1-1-1-1--4-4-4-4------------------------------|

chours 
| and im a soul ..    | im a scandal thats..| someone who is cool
|---------------------|---------------------|------------|
|---------------------|---------------------|------------|
|-3-3-3-3-------------|-5-5-5-5--3-3-3-3----|------------|
|-3-3-3-3--3-3-3-3-x2-|-5-5-5-5--3-3-3-3-x2-|-3-3-3-3--3-|
|-1-1-1-1--3-3-3-3----|-3-3-3-3--1-1-1-1----|-3-3-3-3--3-|
|----------1-1-1-1----|---------------------|-1-1-1-1--1-|

bridge {solo} {end}
somsone who is cool someone who is cool
|----------------------------------------|
|----------------------------------------|
|----------5-5-5-5--3-3-3-3--------------|
|-3-3-3-3--5-5-5-5--3-3-3-3--3-3-3-3-----|
|-3-3-3-3--3-3-3-3--1-1-1-1--3-3-3-3-----|
|-1-1-1-1--------------------1-1-1-1-----|

thats all there is to it
have fun messin around with it
Comments