Ocean Colour Scene - The Circle Chords & Tabs

 

The Circle Chords & Tabs

Ocean Colour Scene Chords & Tabs

Version: 1 Type: Tab 0 ratings
1 star 2 stars 3 stars 4 stars 5 stars
comments

The Circle Tab

   
#----------------------------------PLEASE NOTE--------------------------------#
#This file is the author's own work and represents their interpretation of the#
#song. You may only use this file for private study, scholarship, or research.#
#-----------------------------------------------------------------------------#

Date: Fri, 18 Apr 1997 21:28:56 +0200
From: JOSE LUIS SANZ 
Subject: o/ocean_colour_scene/the_circle.tab

 THE CIRCLE BY OCEAN COLOUR SCENE

 TABBED BY:DAVID GALLEGOS MADRIGAL
 FROM:ARANDA DE DUERO (BURGOS) SPAIN

 HERE´S MY INTERPRETATION OF THIS SONG,I´VE SEEN STEVE PLAYING LIVE AND HE 
 CHANGES SOME PARTS OF THE SONG IN ORDER TO OBTEIN A MORE POWERFULL EFEECT,
 I´VE TRIED TO MIX THE LIVE AND THE RECORD VERSION AND IT SOUNDS GOOD TO ME.
 I HOPE YOU ENJOY!!!

 FIRST THE LITTLE RIFF , IT SOUNDS BETTER WITH AN ACOUSTIC GUITAR PLAYING
 THE CHORDS DURING ALL THE SONG.

 RIFF1:
  (D)                            (A)
E-----2---2---3---2---0-------|---2---2---3---2---3---
B-------------------------3---|-----------------------
G-----------------------------|-----------------------
D-----------------------------|-----------------------
A-----------------------------|-----------------------
E-----------------------------|-----------------------
  (Bm)      (G)
E-----5---5---12---9---7-7-5--|
B-----------------------------|
G-----------------------------|
D-----------------------------|
A-----------------------------|
E-----------------------------|

[ Tab from: http://www.guitartabs.cc/tabs/o/ocean_colour_scene/the_circle_tab.html ]
HERE´S THE TAB FOR THE VERSE,LAST PART (G) IS NOT PLAYED DURING THE FIRST VERSE.
  (D)                       (A)
E------------------------|----------------------        
B------------------------|----------------------          
G------------------------|----------------------
D------------------------|----------------------
A--------9-9---9-10-12---|-------4-4---4-5-7----
E------------------------|----------------------
  (Bm)     (G)
E------------------------|-------3---2---0--2-2--3--5-----------
B------------------------|--------------------------------------
G------------------------|--------------------------------------
D------------------------|--------------------------------------
A--------2-2---2-3-5-----|--------------------------------------
E------------------------|--------------------------------------


HERE IS THE SUPERSOLO AT THE END OF THE SONG....
 
E--------------------------------------|---------------------------10---------
B------12------------------------------|----------------------10------12------
G-----------10-10bend--7---9-9---7-----|------7---7--9--7--11-----------------
D-----------------------------------9--|--7-9---9-----------------------------
A--------------------------------------|--------------------------------------
E--------------------------------------|--------------------------------------

E-----10--14-14--12--10--12-10---------|--------------------------------------
B-----------------------------12-10-14bend-12--10--12----12-------------------
G--------------------------------------|---------------------10--9--7---------
D--------------------------------------|--------------------------------------
A--------------------------------------|--------------------------------------
E--------------------------------------|--------------------------------------

E--------------------------------------|------------5--3(2)3--5--14-12-10-----
B---------7----11-10-9-7---------------|-----5--------------------------------
G-----7-9---9--------------------------|--------7-----------------------------
D-----------------------------7--5--4--5--7-----------------------------------
A--------------------------5-----------|--------------------------------------
E--------------------------------------|--------------------------------------

E--------------------------------------|--------------------------------------
B-----------12-11-12bend-repeat--------|---12-10-7-5---5-------7--------------
G-----11-12----------------------------|-------------7---7-9---7-let-it-sound-
D--------------------------------------|-----------------------7--------------
A--------------------------------------|--------------------------------------
E--------------------------------------|--------------------------------------

THIS IS MY FIRST TAB SO SORRY FOR THE MISTAKES IN THE TRANSCRIPTION,I
KNOW NOTHING ABOUT WRITING MUSIC AND I´M NOT SURE IF YOU ARE GOING TO
UNDERSTAND THE TAB´S TIME AND ALL THOSE THINGS BUT I HOPE SO,ALSO I´M NOT
VERY SURE ABOUT THE LAST PART OF THE SOLO BUT IT SOUNDS GOOD.  

THANKS ENJOY!!!!
Comments