Ocean Colour Scene - The Circle (acoustic) Chords & Tabs

 

The Circle (acoustic) Chords & Tabs

Ocean Colour Scene Chords & Tabs

Version: 1 Type: Tab 1 rating
1 star 2 stars 3 stars 4 stars 5 stars
comments

The Circle (acoustic) Tab

   
##################################################################################
# This file is the author's own work and represents their interpretation of the  #
# song. You may only use this file for private study, scholarship, or research.  #
##################################################################################

The Circle (Acoustc) – Ocean Colour Scene

Intro:
    D               A             Bm            G
e:|-------0h2-------------------------------2-------------3-|
B:|-----3-3---3---3-2---2p0-------------3---3-----3-----3---|
G:|-2-----------2---2---2---2---2-----4-----------0---------|
D:|-0-0-------------2---------2-----4-------------0---------|
A:|-------------------0-----------2-----------2-------------|
E:|---------------------------------------------------3-----|

    D               A         Bm              G
e:|-2-3-2-2p0-----------------2---------5---2-3-------3-----|
B:|-3-----3---3---3-2-----0---------3---3---3-3-----3-------|
G:|-2-----------2---2-------2-----4-----------0-------------|
D:|-0---------------2-------------------------0-------------|
A:|---------------------0-----2-----------------------------|
E:|-----------------------------------------------3---------|

Verse:

    D               A             Bm          G       D
e:|-2-----0h2-----------------------------------3-----2-----|
B:|-----3-----3---3-2-----0-------------3-------3-----3-----|
G:|-------------2---2-------2---2-----4-----4-------------2-|
D:|-0-0-----------------------2-----4-------------------0---|
A:|---------------------0---------2-----------------2-------|
E:|-----------------------------------------------3---------|

    D                       Asus2
 
e:|-0---2-----2---3-----/5----------------------------------|
B:|-3---3-------3-----------0-----0-------0-------0---------|
G:|---------2---------------2---2-----2-------2-------2---2-|
D:|---0---0-------------------2---------2-------2-------2---|
A:|-------------------------0-------------------------------|
E:|---------------------------------------------------------|



[ Tab from: http://www.guitartabs.cc/tabs/o/ocean_colour_scene/the_circle_acoustic_tab.html ]
Chorus:
 
    G         C       G               Asus2
e:|---------------------------3---------------------------------------|
B:|-----------------------------3---3-------0-------0-------0---------|
G:|-0-------0-0-----0-0-----0-----0-------2-----2-------2-------2---2-|
D:|-0-----0---2-----2p0---0-------------2---------2-------2-------2---|
A:|-2---2-----3-----3p0-2-------------0-------------------------------|
E:|-3-3---------------------------------------------------------------|

    D               A             Bm                  G
e:|-2-----3p2-0---------------0---------------12--9---7-----7---------|
B:|-3-----------3-2-2-----2h3---0-7---------7---------8---8-----10--8-|
G:|-2---------------2-------------7-------7-----------7---------------|
D:|-0---0-----------2-------------9-----9-------------9-9-------------|
A:|-----------------0---0---------9---9-------------------------------|
E:|-------------------------------------------------------------------|

(if that last bit causes you trouble, just play the first
 4 bars of the intro instead.)

2nd verse


(play chorus)

Bridge:

    C               G                 D
e:|-------0---------------------------2-----2-------2-------0h2-0h2---|
B:|-1---------1---1---------3---------3---------3-------3---3-------3-|
G:|-0-----------2---0-----------0---0-2---2-------2-------2-2---------|
D:|-2---------------0-------------0---0-0-------------------0---------|
A:|-3---3-----------2-------------------------------------------------|
E:|-----------------3---3---------------------------------------------|

    C             G               Asus2
e:|---------------------------------------------------------------|
B:|-1-----------------------------0-----0-------0-------0---------|
G:|-0-----0-------0---------------2---2-----2-------2-------2---2-|
D:|-2---2-----2---0-------0-------2-2---------2-------2-------2---|
A:|-3-3---------3-2-----2-----2---0-------------------------------|
E:|---------------3---3---------3---------------------------------|

3rd verse

Outro:
Repeat last 4 bars of chorus, then:

    Bm  A   G   D
e:|-2---0-------2---------------------------------------------------|
B:|-3---2-------3---(let ring)--------------------------------------|
G:|-4---2---0---2---------------------------------------------------|
D:|-4---2---0---0---------------------------------------------------|
A:|-----------------------------------------------------------------|
E:|-----------------------------------------------------------------|


this is an awsome acoustic version of the classic and can be found on the rare cd album,
Bsides = seasides and freerides. cheers.
Comments