Ocean Colour Scene - Riverboat Song Chords & Tabs

 

Riverboat Song Chords & Tabs

Ocean Colour Scene Chords & Tabs

Version: 4 Type: Tab 0 ratings
1 star 2 stars 3 stars 4 stars 5 stars
comments

Riverboat Song Tab

Tabbed by:Sofie Kent
Email:stifler123@hotmail.com

Tuning:

e|------------------------------------|
B|------------------------------------|
G|------------------------------------|
D|--0-2--0-2-0-2-0-2-0-2-0-2-0-2-0-2--|
A|-2---2----2---2---2---2---2---2-----|
E|------------------------------------|

e|--------------------------|
B|--------------------------|
G|--------------------------|
D|--------------------------|
A|--------------------------|
E|-0-3-5-0-3-5-0-3-5-0-3-5--|

e|------------------------------------------------------------------------------------|
B|------------------------------------------------------------------------------------|
G|------------------------------------------------------------------------------------|
D|------------------------------------------------------------------------------------|
A|--0-2-0-2--0-2--0-2-----------------------------------------------------------------|
E|-2---2----2---2---------------------------------------------------------------------|
[ Tab from: http://www.guitartabs.cc/tabs/o/ocean_colour_scene/riverboat_song_tab_ver_4.html ]
e|-------------------------------------------------------------------------------------|
B|-------------------------------------------------------------------------------------|
G|--2-4-2-4--2-4-2-4-------------------------------------------------------------------|
D|-4---4----4---4----------------------------------------------------------------------|
A|-------------------------------------------------------------------------------------|
E|-------------------------------------------------------------------------------------|

e|-------------------------------------------------------------------------------------|
B|-------------------------------------------------------------------------------------|
G|-------------------------------------------------------------------------------------|
D|--0-2--0-2-0-2-0-2-------------------------------------------------------------------|
A|-2----2---2---2----------------------------------------------------------------------|
E|-------------------------------------------------------------------------------------|
Comments