Ocean Colour Scene - Riverboat Song Chords & Tabs

 

Riverboat Song Chords & Tabs

Ocean Colour Scene Chords & Tabs

Version: 3 Type: Tab 0 ratings
1 star 2 stars 3 stars 4 stars 5 stars
comments

Riverboat Song Tab

   
e -------------|
B -------------|
G -------------|
D -------------|
A --5-7---5-7--|
E 7-----7------| x8

e -------------------|
B -------------------|
G -------------------|
D ---12-14----12-14--|
A 14-------14--------|
E -------------------| x4

e -------------------|
B -------------------|
G ---12-14----12-14--|
D 14-------14--------|
A -------------------|
E -------------------| x2
[ Tab from: http://www.guitartabs.cc/tabs/o/ocean_colour_scene/riverboat_song_tab_ver_3.html ]
e -------------------|
B -------------------|
G -------------------|
D ---12-14----12-14--|
A 14-------14--------|
E -------------------| x2

e 10-7-10-7-10-7-10-12>14>12-10-7>10>7-------------------|
B -------------------------------------7-----------12>14-|
G ---------------------------------------7---------------|
D -----------------------------------------9-7-9-9-------|
A -------------------------------------------------------|
E -------------------------------------------------------|

(a>b means slide from a to b)
Comments