Ocean Colour Scene - Hundred Mile High City Chords & Tabs

 

Hundred Mile High City Chords & Tabs

Ocean Colour Scene Chords & Tabs

Version: 2 Type: Bass Tab 0 ratings
1 star 2 stars 3 stars 4 stars 5 stars
comments

Hundred Mile High City Bass Tab

Artist: Ocean Colour Scene
Song: 100 Mile High City

Intro/Verse:
G---------------------------------(x3)---------------------------------------|
D---------------------------------(x3)---------------------------------------|
A----7-7--------------------------(x3)---7-7---------------------------------|
E-0-0---0-0-3-3-0-0-5-5-0-0-5h7h5-(x3)0-0---0-0-3-3--------------------------|
[ Tab from: http://www.guitartabs.cc/tabs/o/ocean_colour_scene/hundred_mile_high_city_btab_ver_2.html ]
Chorus:(x4)
G----------------------------------------------------------------------------|
D----------------------------------------------------------------------------|
A-3-3-3-0-------5-5-5-0------------------------------------------------------|
E--------3-3-3-0-------5-5-5-0-----------------------------------------------|

During Guitar Solo:(x2)
G----------------------------------------------------------------------------|
D------------0---2---0-------------------------------------------------------|
A---------0h2-2h4-0h2-7-7-7-5------------------------------------------------|
E-5(x22)-0-------------------7-7-5-5-3-3h5-3---------------------------------|

Outro:(x2)
G----------------------------------------------------------------------------|
D----------------------------------------------------------------------------|
A-7-7-7-7-7-7-7-6-5----------------------------------------------------------|
E------------------7-6-5-----------------------------------------------------|

Tabbed by: M.Moloney
Comments