Ocean Blue - Vanity Fair Chords & Tabs

 

Vanity Fair Chords & Tabs

Ocean Blue Chords & Tabs

Version: 1 Type: Chords 0 ratings
1 star 2 stars 3 stars 4 stars 5 stars
comments

Vanity Fair Chords

   
-------------------------------------------------------------------------------
			     VANITY FAIR - THE OCEAN BLUE
-------------------------------------------------------------------------------
Tabbed by: ricardo orozco
comments to Email:ricardo_orozco_no@yahoo.com
April 07,2005

Tuning:EADGBe



RIFF 1

	 E		Cm#	  Cm#///////////////	
e|-----------------------------------------------------|
B|-------9----9---------5---------5--------------------|
G|-------9--9---8-------6---------6.-------------------|
D|-------9--------------6---------6.-------------------|
A|-------7--------------4---------4--------------------|
E|----0----------------------0-------------------------|


E
    Walking strolling down
	            Cm#
Down the gallery of memory
E
   Pictures painted there
		    Cm#
And it hangs on the wall
E
   Calling out to me
		 Cm#
Down the corridor to the left
E
   Pilgrim walk away
	  Cm#
Just walk away

	A  B  Cm#

	A  B  Cm#
Pilgrim beware 
	A  B  Cm#	
of Vanity Fair
	A  B  Cm#	       G
Pilgrim beware


[ Tab from: http://www.guitartabs.cc/tabs/o/ocean_blue/vanity_fair_crd.html ]
E
    Window shopping now
		     Cm#
Window shopping down at Vanity Fair
E
    Shall we go inside
	      Cm#
Go inside and look around
E
    Would you like to buy
	     Cm#	 
The Red Man kindly asks me
E
    Pilgrim walk away
	  Cm#      
Just walk away


	 A  B  Cm#

	 A  B  Cm#	
Pilgrim beware 
	 A  B  Cm#
of Vanity Fair
         A  B  Cm#             G
Pilgrim beware



WITH RIFF 1
E
   Singing, calling out
		   Cm#
Echoes of the truth somewhere
E
   A sea of sinking souls
		  Cm#
They can't really understand
E
   Vain, it's calling vain
                        Cm#
Watch them take another drink again
E
   Pilgrim walk away
	  Cm#
Just walk away


	 A  B  Cm#

	 A  B  Cm#	
Pilgrim beware 
	 A  B  Cm#
of Vanity Fair
         A  B  Cm#             G
Pilgrim beware


RIFF 2	

e|-----------------------------------------------------|
B|-----------------------------------------------------|
G|-----------------------------------------------------|
D|--2-2-2-2-2-2-4-4-4-4-4-4-6-6-6-6-6-6-7-6-4-2--------|
A|-----------------------------------------------------|
E|-----------------------------------------------------|


E
                    Cm#
E
                    Cm#
E        
                    Cm#



Comments