Ocean Blue - Crash Chords & Tabs

 

Crash Chords & Tabs

Ocean Blue Chords & Tabs

Version: 1 Type: Tab 0 ratings
1 star 2 stars 3 stars 4 stars 5 stars
comments

Crash Tab

   
The Ocean Blue - "Crash"
Capo on 5th fret.
Intro:                                  |   Chords Used:
                                        |Cmaj7  C/G   G6   G*   G^   F*   F^   C^
-------------------------------------1e-|0-------0----0----0----0----0----x----3----|
0-1------0-1------0-1------0-1-------2b-|0-------1----0----1----3----0----1----1----|
0---0----0---0----2---2----0---0-----3g-|0-------0----0----0----0----2----2----0----|
2-----2--0-----0--3-----3--0-----0---4d-|2-------2----0----0----0----3----3----2----|
3--------2--------3--------2---------5a-|3-------3----2----2----2----3----3----3----|
---------3--------1--------3---------6E-|x-------x----3----3----3----1----1----x----|
Repeat intro three times

Verse 1:
|Cmaj7|C/G   |G/6      |G*           |F*  |F^  |G6   |G* G6
|Your |lovely|daydreams|from the     |back|of  |youth|
|You  |meta  |morpho   |osed and then|off |they|flew |

Chorus:
|F^      |G6|G*         |C/G |C^|C/G|F*      |G6
|Remember|me|ee when you|fall|  |   |Remember|me when you.....

-------------------------------------|
0-1------0-1------0-1------0-1-------|
0---0----0---0----2---2----0---0-----|
2-----2--0-----0--3-----3--0-----0---|
3--------2--------3--------2---------|
---------3--------1--------3---------|
......Crash

-------------------------------------|
0-1------0-1------0-1------0-1-------|
0---0----0---0----2---2----0---0-----|
2-----2--0-----0--3-----3--0-----0---|
3--------2--------3--------2---------|
---------3--------1--------3---------|

Verse 2:
|Cmaj7|C/G    |G/6   |G*          |F*      |F^   |G6   |G*  |G6
|Your |soon to|morrow|  in        |front   |of   |you  |    |
|holds|lovely |daydre|ams from the|back    |round|view |    |
[ Tab from: http://www.guitartabs.cc/tabs/o/ocean_blue/crash_tab.html ]
|F^      |G6|G*         |C/G |C^|C/G|F*      |G6|G*  |G6
|Remember|me|ee when you|fall|  |   |Remember|me|when|you.....

|Cmaj7
|......when you......


Verse 3:
|Cmaj7|C/G    |G/6   |G*           |F*      |F^   |G6   |G*  |G6
|Your |soon to|morrow|  in         |front   |of   |you  |    |
|You  |meta   |morpho|osed and then|off     |you  |flew |    |


Chorus:
|F^      |G6|G*         |C/G |C^|C/G|F*      |G6
|Remember|me|ee when yoo|oooo|ou|   |Remember|me when you.....

-------------------------------------|
0-1------0-1------0-1------0-1-------|
0---0----0---0----2---2----0---0-----|
2-----2--0-----0--3-----3--0-----0---|
3--------2--------3--------2---------|
---------3--------1--------3---------|
......Crash

|Cmaj7  C/G  G^   G*   F*  F^  G6  G6| x2

3--3----3--5-3--3--3----3----------------------|
0--1----3--0-0--0--1----0----------------------|
0--0----0--0-0--2--2----0----------------------|
2--2----0--0-0--3--3----0----------------------|
3--3----2--2-2--3--3----2----------------------|
x--x----3--3-3--1--1----3----------------------|
v^v^_^v^v^v^_^v^v^v^_^v^v^v^_^v^ (strum Pattern)


|F^      |G6|G*         |C/G |C^|C/G|F*      |G6
|Remember|me|ee when yoo|oooo|ou|   |Remember|me when you

--------------------------------------|
0-1------0-1------0-1------0-1--------|
0---0----0---0----2---2----0---0------|
2-----2--0-----0--3-----3--0-----0----|
3--------2--------3--------2----------|
---------3--------1--------3----------|
......Crash                   when yoo

------------------------------------0-|
0-1------0-1------0-1------0-1------0-|
0---0----0---0----2---2----0---0----0-|
2-----2--0-----0--3-----3--0-----0--2-|
3--------2--------3--------2--------3-|
---------3--------1--------3----------|(let ring)
ooou..Crash


This is my best representation.  Enjoy!
Reggie Peratrovich
r.peratrovich@worldnet.att.net
Comments